>
 >
Circular

Circular Bass Tabs

Late Of The Pier - Circular chords, tabs, tablatures, lyrics

Guitar lessons | Add/correct | Request | Top 50 tabs Artists:  A B C D E F G H I J K L M N O P Q R S T U V W X Y Z 0-9

Circular Bass Tabs – Late Of The Pier

CD, Sheet music, Poster

Do you like Circular? Share with your friends now
Bass TabsBass Tabs v2Tabs
-------------------------------------------------------------------------------
-------------------------------------------------------------------------------


Tuning:EADG


This song was on the zarcorp demo that late of the pier did. Before that I believe it 
called "pizza track"

but anyway the very start doesnt have any bass [I think :S]
but here is the bass for it anyway, just follow the guitar

G|----------------------------------------------------------------------|
D|----------------------------------------------------------------------| X2
A|-5-55/0-00\5-5/00000h111----------------------------------------------|
E|---------------------1-11331313/--------------------------------------|

G|----------------------------------------------------------------------|
D|----------------------------------------------------------------------|
A|-55----55----11-------------------------------------------------------|
E|----55----55----11-3-31313/-------------------------------------------|

G|----------------------------------------------------------------------|
D|----------------------------------------------------------------------|
A|-55----55----11-------------------------------------------------------|
E|----55----55----11-3-31313333333/-------------------------------------|


Now into the "wailey" guitar part of the intro at around 0:27 ....


G|----------------------------------------------------------------------|
D|----------------------------------------------------------------------|
A|-5-5-5h4h5------------------------------------------------------------|
E|----------5-55h4h5-6-66h5h6-111/5-------------------------------------|

G|----------------------------------------------------------------------|
D|----------------------------------------------------------------------|
A|-5-5-5h4h5------------------------------------------------------------|
E|----------5-55h4h5-6-666/8889-----------------------------------------|

Now the above may look wrong, but belive me... I like to see bass tabs correct. So i've 
over and you can just about hear Faley make the little hammer on's


Verse "Circular pizza coming my way.."

G|----------------------------------------------------------------------|
D|----------------------------------------------------------------------|
A|-55----55----11-------------------------------------------------------|
E|----55----55----11-3-31313/-------------------------------------------|

G|----------------------------------------------------------------------|
D|----------------------------------------------------------------------|
A|-55----55----11-------------------------------------------------------|
E|----55----55----11-3-31313333333/-------------------------------------|


chorus "Don't you understand.."

G|----------------------------------------------------------------------|
D|----------------------------------------------------------------------|
A|-5-5-5h4h5------------------------------------------------------------|
E|----------5-55h4h5-6-66h5h6-111/5-------------------------------------|

G|----------------------------------------------------------------------|
D|----------------------------------------------------------------------|
A|-5-5-5h4h5------------------------------------------------------------|
E|----------5-55h4h5-6-666/8889-----------------------------------------|


G|----------------------------------------------------------------------|
D|----------------------------------------------------------------------|
A|-5-5-5h4h5------------------------------------------------------------|
E|----------5-55h4h5-6-66h5h6-111/5-------------------------------------|

G|----------------------------------------------------------------------|
D|----------------------------------------------------------------------|
A|-5-5-5h4h5------------------------------------------------------------|
E|----------5-55h4h5-6-666/8888888889\----------------------------------|


"Wish I was a fairy queen...."

G|----------------------------------------------------------------------|
D|----------------------------------------------------------------------|
A|--------------------555555--------------------------------------------|
E|-1-1111/6-66665-5555--------------------------------------------------|


G|----------------------------------------------------------------------|
D|----------------------------------------------------------------------|
A|--------------------555588\-------------------------------------------|
E|-1-1111/6-66665-5555--------------------------------------------------|


G|---------------------75-----------------------------------------------|
D|-----------------------75---------------------------------------------|
A|--------------------5----75-------------------------------------------|
E|-1-1111/6-66665-5555--------------------------------------------------|


G|----------------------------------------------------------------------|
D|----------------------------------------------------------------------|
A|--------------------555555--------------------------------------------|
E|-1-1111/6-66665-5555------6-66666-3-33333/6-66666-3-33333-------------|


1:53

G|---------------75-----------------------------------------------------|
D|-----------------75---------------------------------------------------|
A|-5-5555-------5----75-------------------------------------------------|
E|-------1-1111--------1-1111--6-6666-3-3333/6-6666-3-33333-------------|

Now heres the fun part at 2:06


G|----------------------------------------------------------------------|
D|----------------------------------------------------------------------|
A|-------1-----------------------------1--------------------------------|
E|-1-xxxx-1-xxxx65-xxxx-56-xxxx-61-xxxx-1-xxxx-56-xxxx-65---------------|

 (Below are tens)
G|-9h10h9---------------------------------------------------------------|
D|-------1087-----------------------------------------------------------|
A|-----------8----------------------------------1-----------------------|
E|------------xxxx-61-xxxx-65-xxxx-56-6h851-xxxx-1-xxxx-65-xxxx-5666/888|


Back to the very start riff (2:32)

G|----------------------------------------------------------------------|
D|----------------------------------------------------------------------| x2
A|-555---555------------------------------------------------------------|
E|----555---55555h6-111331313/------------------------------------------|

Now right at the end is  very strange, the version ive got you an hardly hear the bass :S

but from what i can make out it goes something like this..

G|--------355/653------------------------------------------------------|
D|-----535-------53----------------------------------------------------| x2
A|-535-----------------------------------------------------------------|
E|---------------------------------------------------------------------|

G|--------355/653------------------------------------------------------|
D|-----535-------53----------------------------------------------------|
A|-535-------------5322------------------------------------------------|
E|---------------------------------------------------------------------|



| /  slide up
| \  slide down
| h  hammer-on
| p  pull-off
| ~  vibrato
| +  harmonic
| x  Mute note
===============================================================================





Comments


Popular Late Of The Pier tabs & chords
Broken Bass Tabs
The Bears Are Coming Bass Tabs
The Bears Are Coming Chords
7beat A Heartbeat A Flicker A Line Intro Tabs
Broken Tabs
Random Firl Tabs
Space And The Woods Tabs
The Bears Are Coming Tabs
Vw Tabs
Hot Tent Blues Ukulele


Song lyrics



↑ Back to top | Tablatures and chords are parodies/interpretations of the original songs. You may use it for private study, scholarship, research or language learning purposes only
© 2014 AZChords.com Contact us | Privacy policy | DMCA | Add/correct tabs | Request tabs | Top 50 tabs