>
 >
Circular

Circular Guitar Tabs

Late Of The Pier - Circular chords, tabs, tablatures, lyrics

Guitar lessons | Add/correct | Request | Top 50 tabs Artists:  A B C D E F G H I J K L M N O P Q R S T U V W X Y Z 0-9

Circular Guitar Tabs – Late Of The Pier

CD, Sheet music, Poster

Do you like Circular? Share with your friends now
Bass TabsBass Tabs v2Tabs
Intro

e|----------------------------------------------------------|
B|----------------------------------------------------------|
G|-77x-----777----------------------------------------------|
D|-77x-77x-777-7777/8888\33/55454545------------------------|
A|-55x-77x-555-7777/8888\33/55454545------------------------|
E|-----55x-----5555/6666\11/33232323------------------------|x2


e|----------------------------------------------------------|
B|----------------------------------------------------------|
G|-777-----777----------------------------------------------|
D|-777-777-777-7777/8888\333/55454545-----------------------|
A|-555-777-555-7777/8888\333/55454545-----------------------|
E|-----555-----5555/6666\111/33232323-----------------------|
   ^^  ^^  ^^  ^^^  ^^^  ^^  ^^
(^im pointing to the chords that are palm muted)


guitar one

e|----------------------------------------------------------|
B|----------------------------------------------------------|
G|-7777-----------------------------------------------------|
D|-7777-77777--888888-3333333-------------------------------|
A|-5555-77777--888888-3333333-------------------------------|
E|------55555--666666-1111111-------------------------------|

e|----------------------------------------------------------|
B|----------------------------------------------------------|
G|-7777-----------------------------------------------------|
D|-7777-77777--888888-101010101010--------------------------|
A|-5555-77777--888888-101010101010--------------------------|
E|------55555--666666-8-8-8-8-8-8---------------------------|

guitar 2
e|----------------------------------------------------------|
B|----------------------------------------------------------|
G|-21^(23)-21-19-17----------19-19-17-----------------------|
D|------------------19-19h22----------19-17-17-15-----------|
A|----------------------------------------------------------|
E|----------------------------------------------------------|

e|----------------------------------------------------------|
B|----------------------------------------------------------|
G|-21^(23)-21-19-17----------19-19-19-19-21-21-21-21-21-19--|
D|------------------19-19h22--------------------------------|
A|----------------------------------------------------------|
E|----------------------------------------------------------|


Verse

e|----------------------------------------------------------|
B|----------------------------------------------------------|
G|-777-----777----------------------------------------------|
D|-777-777-777-7777/8888\333/55454545-----------------------|
A|-555-777-555-7777/8888\333/55454545-----------------------|
E|-----555-----5555/6666\111/33232323-----------------------|x2
   ^^  ^^  ^^  ^^^  ^^^  ^^  ^^



Chorus

guitar one
e|----------------------------------------------------------|
B|----------------------------------------------------------|
G|-7777-----------------------------------------------------|
D|-7777-77777--888888-3333333-------------------------------|
A|-5555-77777--888888-3333333-------------------------------|
E|------55555--666666-1111111-------------------------------|

e|----------------------------------------------------------|
B|----------------------------------------------------------|
G|-7777-----------------------------------------------------|
D|-7777-77777--888888-101010101010--------------------------|
A|-5555-77777--888888-101010101010--------------------------|
E|------55555--666666-8-8-8-8-8-8---------------------------|

guitar two
e|----------------------------------------------------------|
B|----------------------------------------------------------|
G|-------22----22-------18----18-------19---------14--14----|
D|-19-19----19----15-15----15----17-17----17-12-12--12------|
A|----------------------------------------------------------|
E|----------------------------------------------------------|


e|----------------------------------------------------------|
B|----------------------------------------------------------|
G|-------22----22-------18----18-------19----19-----21--21--|
D|-19-19----19----15-15----15----17-17----17---19-19--19----|
A|----------------------------------------------------------|
E|----------------------------------------------------------|

^im not 100% on that bit but its pretty darn close =]



Bridge:

e|----------------------------------------------------------|
B|----------------------------------------------------------|
G|-------------------7777777--------------------------------|
D|-3333/888888\77777-7777777--------------------------------|
A|-3333/888888\77777-5555555--------------------------------|
E|-1111/666666\55555----------------------------------------|x3

e|-----------------------------------------------------------|
B|-----------------------------------------------------------|
G|-------------------7777777---------------------------------|
D|-3333/888888\77777-7777777-8888855555558888888555555555555-|
A|-3333/888888\77777-5555555-8888855555558888888555555555555-|
E|-1111/666666\55555---------6666633333336666666333333333333-|
 guitar 2 stops playing here^

e|----------------------------------------------------------|
B|----------------------------------------------------------|
G|-----3-----3-2-2-2-3--------------------------------------|
D|-3-3-3-3-3-3-2-2-2-3--------------------------------------|
A|-3-3-1-3-3-1-0-0-0-1--------------------------------------|
E|-1-1---1-1------------------------------------------------|x2


guitar two
e|----------------------------------------------------------|
B|----------------------------------------------------------|
G|-------22----22-------18----18-------19---------14--14----|
D|-19-19----19----15-15----15----17-17----17-12-12--12------|
A|----------------------------------------------------------|
E|----------------------------------------------------------|


e|----------------------------------------------------------|
B|----------------------------------------------------------|
G|-------22----22-------18----18-------19----19-----21--21--|
D|-19-19----19----15-15----15----17-17----17---19-19--19----|
A|----------------------------------------------------------|
E|----------------------------------------------------------|x2




solo:


e|----------------------------------------------------------|
B|----------------------------------------------------------|
G|-19~-17-19-22^b-19-17-------------------------------------|
D|----------------------19 17h19p17h19p17h19p17-19-17-15-17-|
A|----------------------------------------------------------|
E|----------------------------------------------------------|


e|----------------------------------------------------------|
B|----------------------------------------------------------|
G|----------------------------------------------------------|
D|-15-14-12-15-17b^-15-14-12-14-15-15^b-12-15-17^b-17h19p17-|
A|----------------------------------------------------------|
E|----------------------------------------------------------|

e|----------------------------------------------------------|
B|----------------------------------------------------------|
G|------------------17-19^b-17h19-19^b(21)------------------|
D|-17h19-19^b-17-19-----------------------------------------|
A|----------------------------------------------------------|
E|----------------------------------------------------------|

the end =]





Comments


Popular Late Of The Pier tabs & chords
Broken Bass Tabs
Heartbeat Bass Tabs
Space And The Woods Bass Tabs
The Bears Are Coming Bass Tabs
7beat A Heartbeat A Flicker A Line Intro Tabs
Random Firl 1 Tabs
Space And The Woods Tabs
The Bears Are Coming Tabs
The Bears Are Coming 1 Tabs
Whitesnake Tabs


Song lyrics



↑ Back to top | Tablatures and chords are parodies/interpretations of the original songs. You may use it for private study, scholarship, research or language learning purposes only
© 2014 AZChords.com Contact us | Privacy policy | DMCA | Add/correct tabs | Request tabs | Top 50 tabs