» » »

Las, Son Of A Gun Tabs (ver.1)

Artists:  A B C D E F G H I J K L M N O P Q R S T U V W X Y Z # 

Son Of A Gun Tabs (ver.1)

Las Tabs
Rating:
5/5 (1 vote)
Son Of A Gun lessons Tabs too difficult? Try these video lessons and learn fast
                
G1: Guitar 1 (Lee Mavers)
G2: Guitar 2 (Peter Cammell)

Note: Play this song tuned half-step down, however the album version has been
lowered to a full-step down, due to the tape speed being altered.

G1 Intro:
-|--2------0-------0-------0-------2-------0-------0-------0----|-------------|
-|--3--------3-------3-------3-------3-------3-------3-------3--|-------------|
-|--2------------2---------------2---------------2--------------|-------------|
-|--0----2-------0-------2-------0-------2-------0-------2------|-------------|
-|-------3---------------3---------------3---------------3------|-------------|
-|--------------------------------------------------------------|-------------|
    D    Cadd9   Dsus2  Cadd9    D       Cadd9  Dsus2   Cadd9
                                                               If you..
G1 Verse: (play 4 times)
-|--2------0-------0-------0-------2-------0-------0-------0----|-------------|
-|--3--------3-------3-------3-------3-------3-------3-------3--|-------------|
-|--2------------2---------------2---------------2--------------|-------------|
-|--0----2-------0-------2-------0-------2-------0-------2------|-------------|
-|-------3---------------3---------------3---------------3------|-------------|
-|--------------------------------------------------------------|-------------|
    D    Cadd9   Dsus2  Cadd9    D       Cadd9  Dsus2   Cadd9
    Wa-ant..           I'll sell you a life story..

G2: (play 4 times)
-|---------------------------------------------------------------|-------------|
-|---------1-------1-------1-------------------------------------|-------------|
-|------------------------------------------0---------0-------0--|-------------|
-|--0------------0-------0----------0-0-----------0--------0-----|-------------|
-|---------------------------------------------------------------|-------------|
-|---------------------------------------------------------------|-------------|

G1 Chorus: (play 4 times)
-|------0-----------0----------0-----------0-----|-----------------------------|
-|--------3-----------3----------3-----------3---|-----------------------------|
-|-------------------------2---------------------|-----------------------------|
-|-------------2-----------0----------2----------|-----------------------------|
-|--2----------3----------------------3----------|-----------------------------|
-|--3--------------------------------------------|-----------------------------|
    G          Cadd9       Dsus2      Cadd9
There was once a boy of life..

G2: (play 4 times)
-|-----------------------------------------------|-----------------------------|
-|-----0--0--------1--1-------3------------------|-----------------------------|
-|-----------------------------------------------|-----------------------------|
-|-----------------------------------------------|-----------------------------|
-|-----------------------------------------------|-----------------------------|
-|-----------------------------------------------|-----------------------------|

And basically repeat all of the above twice and then play a verse and finish on Cadd9.

(I did not create this tab, I am simply posting it on here. The creator's name
etcetera is at the top.)
            

comments powered by Disqus
↑ Back to top | Las Tabs for Son Of A Gun. Lyrics for acoustic guitar and electric guitar. Tablatures and chords are parodies/interpretations of the original songs. You may use it for private study, scholarship, research or language learning purposes only