» » »

Barton Killer Bass tabs (ver.2)

Artists:  A B C D E F G H I J K L M N O P Q R S T U V W X Y Z # 

Barton Killer Bass tabs (ver.2)

La Ruda Salska
Rating:
0/5 (0 votes)

Hard to play? Try these video lessons and learn fast.
                Main riff
G-----------------------------
D-2-2----233-353-2222--2-3-2-0---
A------22-------------------2----------3-
E-----------------------------

Pre-chorus
G------------------------------
D-2-2----233-353-2222--2----------
A------22-------------------2-----------
E-------------------------------33-33-45-

Chorus
G------------------
D------------------
A-3-0-2-3---3-2-0--
E------------1--------

Last verse
G------------------------------
D-2-2---------------22222-2---------
A------22233-353------------333-2-0-
E------------------------------
            
Hard to play? Try these video lessons and learn fast. | Correct




comments powered by Disqus
↑ Back to top | Tablatures and chords are parodies/interpretations of the original songs. You may use it for private study, scholarship, research or language learning purposes only