» » »

La Ruda Salska, Barton Killer Bass tabs (ver.1)

Artists:  A B C D E F G H I J K L M N O P Q R S T U V W X Y Z # 

Barton Killer Bass tabs (ver.1)

La Ruda Salska Tabs
 Rating:
4/5 (4 votes)
Barton Killer lessons Tabs too difficult? Try these video lessons and learn fast
1
                Riff principal
G:-----------------------------
D:-2-2--233-353-2222-2-3-2-0---
A:----22------------2--------3-
E:-----------------------------

Refrain
G:------------------
D:------------------
A:-3-0-2-3---3-2-0--
E:---------1--------

Riff juste avant le 1er refrain
G:------------------------------
D:-2-2--233-353-2222-2----------
A:----22------------2-----------
E:---------------------33-33-45-

Riff du dernier couplet
G:------------------------------
D:-2-2----------22222-2---------
A:----22233-353---------333-2-0-
E:------------------------------
            
Submit corrections

comments powered by Disqus
↑ Back to top | La Ruda Salska Bass for Barton Killer. Lyrics for acoustic guitar and electric guitar. 1 Tablatures and chords are parodies/interpretations of the original songs. You may use it for private study, scholarship, research or language learning purposes only