» » »

La Ruda Salska, Barton Killer Bass tabs (ver.3)

Artists:  A B C D E F G H I J K L M N O P Q R S T U V W X Y Z # 

Barton Killer Bass tabs (ver.3)

La Ruda Salska Tabs
Rating:
0/5 (0 votes)
Barton Killer lessons Tabs too difficult? Try these video lessons and learn fast
                La Ruda Salska
Barton Killer
Bass
By Herisong


Riff1
G:----------------------------------------------
D:-2--2-2---2-3-3--3-5-3---2-2-2-2--2--3--2--0----
A:--------2--------------2---------------------3-
E:----------------------------------------------

Refrain
G:-----------------
D:-----------------
A:-3-0-2-3---3-2-0-
E:---------1-------

Riff2
G:------------------------------------------------
D:-2--2--2---2-3-3-3-5-3--2-2-2-2---2-------------
A:---------2----------------------3---0-0-0-0-1-3-
E:------------------------------------------------

Riff3
G:--------------------
D:-2--2---2--3--3---3-
A:------2---------2---
E:--------------------

Riff4
G:----------------------------------------
D:-2-2--2---3-3--3-5-3--2-2-2---2-3-2-0---
A:-------023-----------------023--------3-
E:----------------------------------------

Riff final
G:----------------------------------------
D:-2-2-2--2---3-3--3-5-3--2-2-2---3---235-
A:---------023------------------2--023----
E:----------------------------------------

Structure:
Riff1: x6
Riff2: x4
Riff1: x1
Riff3: x1
Riff2: x4
Riff4: x4
Riff1: x6
Riff2: x4
Riff5: x4
Riff2: x4
Riff4: x4
Riff1: x3
Riff final: x1
            
Submit corrections

comments powered by Disqus
↑ Back to top | La Ruda Salska Bass for Barton Killer. Lyrics for acoustic guitar and electric guitar. Tablatures and chords are parodies/interpretations of the original songs. You may use it for private study, scholarship, research or language learning purposes only