>
 >
Heavens Drive

Heavens Drive Bass Tabs

L Arc En Ciel - Heavens Drive chords, tabs, tablatures, lyrics

Guitar lessons | Add/correct | Request | Top 50 tabs Artists:  A B C D E F G H I J K L M N O P Q R S T U V W X Y Z 0-9

Heavens Drive Bass Tabs – L Arc En Ciel

CD, Sheet music, Poster

Do you like Heavens Drive? Share with your friends now
Bass TabsBass Tabs v2TabsTabs v2
TIMING: 4/4

This is an awesome song if you love L'Arc~en~Ciel, I Must say tetsu is awesome
at bass!! :) Whole song from beginning to end!

Intro:
When the drums enter, then the bass enters with

G------
D-/15--
A------
E------


G-7-7-----------------------------------7-7---------------------------------
D-----5-5-5-5-6-7-7-7-7-0-5-3-5-3-5-3-0----5-5-5-5-6-7-7-7-7-0-5-3-5-6-5-3-0
A---------------------------------------------------------------------------
E---------------------------------------------------------------------------

G-7-7-----------------------------------7-7---------------------------------
D-----5-5-5-5-6-7-7-7-7-0-5-3-5-3-5-3-0----5-5-5-5-6-7-7-7-7-0-5-3-5-6-5-3-0
A---------------------------------------------------------------------------
E---------------------------------------------------------------------------

G-7-7-----------------------------------7-7---------------------------------
D-----5-5-5-5-6-7-7-7-7-0-5-3-5-3-5-3-0----5-5-5-5-6-7-7-7-7-0-5-3-5-6-5-3-0
A---------------------------------------------------------------------------
E---------------------------------------------------------------------------

G-7-7-----------------------------------
D-----5-5-5-5-6-7-7-7-7-0-5-3-5-3-5-3-0-
A---------------------------------------
E---------------------------------------

G-7-7--------------------------------------------------------------
D-----5-5-5-5-6-7-7-7-7-0-5-0-0-0-5-0-0-0-5-0-0-0-5-0-0-0-5-7-7-0--
A------------------------------------------------------------------
E------------------------------------------------------------------

G-7-7-----------------------------------7-7---------------------------------
D-----5-5-5-5-6-7-7-7-7-0-5-3-5-3-5-3-0----5-5-5-5-6-7-7-7-7-0-5-3-5-6-5-3-0
A---------------------------------------------------------------------------
E---------------------------------------------------------------------------

G-7-7-----------------------------------7-7---------------------------------
D-----5-5-5-5-6-7-7-7-7-0-5-3-5-3-5-3-0----5-5-5-5-6-7-7-7-7-0-5-3-5-6-5-3-0
A---------------------------------------------------------------------------
E---------------------------------------------------------------------------

G-7-7-----------------------------------
D-----5-5-5-5-6-7-7-7-7-0-5-3-5-3-5-3-0-
A---------------------------------------
E---------------------------------------

G-7-7---------------------------------------------
D-----5-5-5-5-6-7-7-7-7-0-8-8-6-6-6---------------
A-----------------------------------8-8-6-6-5---6-
E---------------------------------------------6---

        p p                           p p p 
G-----68686------------------6-6---4-646464----------------
D---8-------9-8/-6---4-5-5-6-----5----------6-4---/6-------
A-6----------------6----------------------------4----9-8-6-
E----------------------------------------------------------
        p p                                p p
G-----68686-----------------p------6---6--6464------------
D---8-------9-8/-8---6---6-86--6-8---6----------8-8-8-8-8-
A-6----------------8---8------8---------------------------
E---------------------------------------------------------
        p p			       p p p
G-8/---68686------------------6-6---4-646464----------------
D---/8-------9-8/-6---4-5-5-6-----5----------6-4---/6-------
A-------------------6----------------------------4----9-8-6-
E----------------------------------------------------------
           p p
G-------6-8686-----------------p-------
D----/8--------9-8/-6---6---6-86---6-8-
A-6/------------------6---8------8-----
E--------------------------------------

G-7-7-----------------------------------7-7---------------------------------
D-----5-5-5-5-6-7-7-7-7-0-5-3-5-3-5-3-0----5-5-5-5-6-7-7-7-7-0-5-3-5-6-5-3-0
A---------------------------------------------------------------------------
E---------------------------------------------------------------------------

G-7-7-----------------------------------7-7---------------------------------
D-----5-5-5-5-6-7-7-7-7-0-5-3-5-3-5-3-0----5-5-5-5-6-7-7-7-7-0-5-3-5-6-5-3-0
A---------------------------------------------------------------------------
E---------------------------------------------------------------------------

G-7-7-----------------------------------
D-----5-5-5-5-6-7-7-7-7-0-5-3-5-3-5-3-0-
A---------------------------------------
E---------------------------------------

G-7-7---------------------------------------------
D-----5-5-5-5-6-7-7-7-7-0-8-8-6-6-6---------------
A-----------------------------------8-8-6-6-5---6-
E---------------------------------------------6---

        p p                           p p p 
G-----68686------------------6-6---4-646464----------------
D---8-------9-8/-6---4-5-5-6-----5----------6-4---/6-------
A-6----------------6----------------------------4----9-8-6-
E----------------------------------------------------------
        p p                                p p
G-----68686-----------------p------6---6--6464------------
D---8-------9-8/-8---6---6-86--6-8---6----------8-8-8-8-8-
A-6----------------8---8------8---------------------------
E---------------------------------------------------------
         p p                           p p p
G-8/---68686------------------6-6---4-646464----------------
D---/8-------9-8/-6---4-5-5-6-----5----------6-4---/6-------
A-------------------6----------------------------4----9-8-6-
E-----------------------------------------------------------
           p p
G-------6-8686-----------------p-------
D----/8--------9-8/-8---6---6-86---6/--
A-6/------------------8---8------8-----
E--------------------------------------

G-----------------------------------------------------------------
D-----------------------------------------------------------------
A-----------------------------------------------------------------
E-6-6-6-6-6-6-6-6-6-6-6-6-6-6-6-6-2-2-2-2-2-2-2-2-2-2-2-2-2-2-2-2-

G-----------------------------------------------------------
D-----------8---8-8~8---------------------------------------
A-------8-8---8-------8-------------------------------------
E-6-6-6-----------------6-6-2-2-2-2-2-2-2-2-2-2-2-2-2-2-2-2-

G-4-4-4-4-4-4---4-6-4-4-4-4-------------------------------
D-------------4-------------4---------5---5-7-7-5-4-5-4---
A-----------------------------------5---5---------------5-
E-----------------------------3-3-3-----------------------

G-4-4-4-----4---4-4-6-6-6-7-6-4------------------R-
D-------4-4---4----------------------------------E-
A------------------------------------------------S-
E-------------------------------3-3-3-3-3-3-3-3--T-

G-7-7-----------------------------------7-7---------------------------------
D-----5-5-5-5-6-7-7-7-7-0-5-3-5-3-5-3-0----5-5-5-5-6-7-7-7-7-0-5-3-5-6-5-3-0
A---------------------------------------------------------------------------
E---------------------------------------------------------------------------


G-7-7---------------------------------------------
D-----5-5-5-5-6-7-7-7-7-0-8-8-6-6-6---------------
A-----------------------------------8-8-6-6-5---6-
E---------------------------------------------6---
        p p                           p p p 
G-----68686------------------6-6---4-646464----------------
D---8-------9-8/-6---4-5-5-6-----5----------6-4---/6-------
A-6----------------6----------------------------4----9-8-6-
E----------------------------------------------------------
        p p                                p p
G-----68686-----------------p------6---6--6464------------
D---8-------9-8/-8---6---6-86--6-8---6----------8-8-8-8-8-
A-6----------------8---8------8---------------------------
E---------------------------------------------------------
         p p                           p p p
G-8/---68686------------------6-6---4-646464----------------
D---/8-------9-8/-6---4-5-5-6-----5----------6-4---/6-------
A-------------------6----------------------------4----9-8-6-
E-----------------------------------------------------------
           p p                             p p
G-------6-8686--------------------6-6---4-6464-------
D----/8--------9-8/-6---4-5-5-6-6-----6--------6-6-6-
A-6/------------------6------------------------------
E----------------------------------------------------
                    p p
G----------------6-8686------------------6-6---6-4-4-3------
D-------------/8--------9-8/-6---4-5-5-6-----6---------4-3--
A----6-5-6-6/------------------6----------------------------
E-6/--------------------------------------------------------
                           p p
G-----------------------6-8686----------------------
D-4---6-4-3-4--------/8--------9-8/-6---4-5-6-6---4-
A---4---------4-6-6/------------------6---------6---
E---------------------------------------------------

G-7-7-----------------------------------7-7---------------------------------
D-----5-5-5-5-6-7-7-7-7-0-5-3-5-3-5-3-0----5-5-5-5-6-7-7-7-7-0-5-3-5-6-5-3-0
A---------------------------------------------------------------------------
E---------------------------------------------------------------------------

G-7-7-----------------------------------
D-----5-5-5-5-6-7-7-7-7-0-5-3-5-3-5-3-0-
A---------------------------------------
E---------------------------------------

G-7-7---------------------------------------------------------------------/x--
D-----5-5-5-5-6-7-7-7-7-0-5-0-0-0-5-0-0-0-5-0-0-0-5-0-0-0-5-7-7-0-------------
A------------------------------------------------------------------5~~-5/-----
E-----------------------------------------------------------------------------





Comments


Popular L Arc En Ciel tabs & chords
Blurry Eyes Bass Tabs
Cureless Bass Tabs
Kaze No Yukue Bass Tabs
Dive To Blue Chords
Existence Chords
Fate Chords
Vivid Colors Chords
Fate Tabs
Niji Tabs
Stay Away (Solo) Tabs


Song lyrics



↑ Back to top | Tablatures and chords are parodies/interpretations of the original songs. You may use it for private study, scholarship, research or language learning purposes only
© 2014 AZChords.com Contact us | Privacy policy | DMCA | Add/correct tabs | Request tabs | Top 50 tabs