>
 >
Stay Away

Stay Away Bass Tabs

L Arc En Ciel - Stay Away chords, tabs, tablatures, lyrics

Guitar lessons | Add/correct | Request | Top 50 tabs Artists:  A B C D E F G H I J K L M N O P Q R S T U V W X Y Z 0-9

Stay Away Bass Tabs – L Arc En Ciel

CD, Sheet music, Poster

Do you like Stay Away? Share with your friends now
Bass TabsChords
INTRO

|-----------------|-----------------|-----------------|-----------------|
|-----------------|-------4-7-7-----|-----0---2---0---|---0---0---------|
|-0-0-0-0-0-0-0-0-|-0-0-0-------7-\-|-4-4---4---4---4-|-4---4---4-2-0---|
|-----------------|-----------------|-----------------|---------------4-|

|-----------------|-----------------|-----------------|-----------------|
|-----------------|-----------------|-----------------|-----------------|
|---------2-------|-0-------2-------|-----------------|---2---3---2-3---|
|-2-2-0-2---2-0-2-|---2-0-2---2-0-2-|-1-1-1-1-1-1-1-1-|-3---3---3-------|

|-----------------|-----------------|-----------------|-----------------|
|-----------------|-------4-7-7-----|-----0---2---0---|---0-------------|
|-0-0-0-0-0-0-0-0-|-0-0-0-------7-\-|-4-4---4---4---4-|-4---4-2-4-2-0---|
|-----------------|-----------------|-----------------|---------------4-|

|-----------------|-----------------|-----------------|-----------------|
|-----------------|-----------------|-------------2-\-|-----------------|
|---------2-------|-0-------2-------|-----------3-----|-----------------|
|-2-2-0-2---2-0-2-|---2-0-2---2-0-2-|-1-1-1-1-1-------|-1-3-3-1-3-3-3-3-|

VERSE

|-----------------|-----------------|-----------------|-----------------|
|*----------------|-------4-7-7-----|-----------------|---0-------------|
|*------0-0-0-0-0-|-0-0-0-------7-\-|-4-4-4-4-4-4-4-4-|-4---4-2-4-2-0---|
|-3-/-5-----------|-----------------|-----------------|---------------4-|

|-----------------|-----------------|-----------------|-----------------||
|-----------------|-----------------|-----------------|----------------*||
|---------2-------|-0-------2-------|-----------------|---2---3---2----*||
|-2-2-0-2---2-0-2-|---2-0-2---2-0-2-|-1-1-1-1-1-1-1-1-|-3---3---3---3---||

PRE-CHORUS

|-----------------|-----1-----------|-----------------|-----6-6-4-6-9-\-|
|---2-0-----------|-------4---------|-------------0---|---6-------------|
|-------4-2-0-----|---4-------4-----|---2-3-4---2-----|-----------------|
|-------------4-2-|-------------5-\-|---------------2-|-----------------|

|-----------------|-----------------|-----6-7/9-7-6-\-|-------------------|
|---2-0-----------|-----4/6---4-4---|---7-------------|-------------------|  9/8
|-------4-2-0-----|---4-----------4-|-----------------|-------------------| <---
|-------------4-2-|-----------------|-----------------|-1---0-1-0-1---3---|

CHORUS

|-----------------|-----------------|-----------------|---0-------------|
|-----------------|-----------------|-------------0-2-|-2---------------|
|-----------------|-----2---3---2---|---0-0---0-3-----|-------0---0-0---|
|-1-1-1-1-1-1-1-1-|-3-3---3---3---3-|-3-----3---------|---------------3-|

|-----------------|-----------------|-----------------|---0-1-2---------|
|-----------------|-----------------|-------------0-2-|-2---------2-5-\-|
|-----------------|---2---2---2-----|---0-3-0-0-3-----|-----------------|
|-1-1-1-1-1-1-1-1-|-3---3---3---3---|-3---------------|-----------------|

VERSE

|-----------------|-----------------|-----------------|-----------------|
|*----------------|-------4-7-7-----|-----0---2---0---|---0-------------|
|*0-0-0-0-0-0-0-0-|-0-0-0-------7-\-|-4-4---4---4---4-|-4---4-2-4-2-0---|
|-----------------|-----------------|-----------------|---------------4-|

|-----------------|-----------------|-----------------|-----------------||
|-----------------|-----------------|-----------------|----------------*||
|---------2-------|-0-------2-------|-----------------|---2---3---2----*||
|-2-2-0-2---2-0-2-|---2-0-2---2-0-2-|-1-1-1-1-1-1-1-1-|-3---3---3---3---||

PRE-CHORUS

|-----------------|-----1-----------|-----------------|-----6-6-4-6-9-\-|
|---2-0-----------|-------4---------|-------------0---|---6-------------|
|-------4-2-0-----|---4-------4-----|---2-3-4---2-----|-----------------|
|-------------4-2-|-------------5-\-|---------------2-|-----------------|

|-----------------|-----------------|-----6-7/9-7-6-\-|-------------------|
|---2-0-----------|-----4/6---4-4---|---7-------------|-------------------|  9/8
|-------4-2-0-----|---4-----------4-|-----------------|-------------------| <---
|-------------4-2-|-----------------|-----------------|-1---0-1-0-1---3---|

CHORUS

|-----------------|-----------------|-----------------|-----------------|
|-----------------|-----------------|-------------0-2-|-5---------------|
|-----------------|-----2---3---2---|---0-0---0-3-----|---0---0---0-0---|
|-1-1-1-1-1-1-1-1-|-3-3---3---3---3-|-3-----3---------|---------------3-|

|-----------------|-----------------|-----------------|---2-2-5-2-5-2---|
|-----------------|-----------------|-------------0-2-|-2-------------2-|
|-----------------|---2---2---2-----|---0-3-0-0-3-----|-----------------|
|-1-1-1-1-1-1-1-1-|-3---3---3---3---|-3---------------|-----------------|

|-----------------|-----------------|---------------7-|-5---5-----------|
|-----------------|-----------------|-------------0---|---7---7-5-------|
|-----------------|-----2---3---2---|---0-0---0-3-----|-----------7-7-\-|
|-1-1-1-1-1-1-1-1-|-3-3---3---3---3-|-3-----3---------|-----------------|

|-----------------|-----------------|
|-----------------|-----------------|
|-----------------|-----------------|
|-1---1-1-1-1-1-1-|-3-3-3-----------|

SOLO

|-----------------|-----------------|-----------------|-----------------|
|---------------4-|---4---4-4-4-----|-----------------|-----------------|
|-----------------|-------------4-\-|-----------------|-2-3---2-4---0---|
|-2-------2---0---|-----------------|-1-------1-----0-|-----------------|
                          11  11
|-----------------|-------*---*-11--|-----------------|-----------------|
|-----------4-4-4-|-------------*-\-|-----------------|-----------------|
|-----------------|---4-------------|-----------------|---2-----3---2-2-|
|-2-------2-------|-----------------|-1-------1-------|-3-----3---3-----|

|-----------------|-----------------|-----------------|-----------------|
|-----------------|-------4-7-7-----|-----0---2---0---|---0-------------|
|-0-0-0-0-0-0-0-0-|-0-0-0-------7-\-|-4-4---4---4---4-|-4---4-2-4-2-0---|
|-----------------|-----------------|-----------------|---------------4-|

|-----------------|-----------------|-----------------|-----------------|
|-----------------|-----------------|-----------------|---------0-------|
|---------2-------|-0-------2-------|-----------------|---2---3---3-2---|
|-2-2-0-2---2-0-2-|---2-0-2---2-0-2-|-1-1-1-1-1-1-1-1-|-3---3---------3-|

|-----------------|-----------------|-----------------|-----------------|
|-----------------|-------4-7-7-----|-----0---2---0---|---0---0---------|
|-0-0-0-0-0-0-0-0-|-0-0-0-------7-\-|-4-4---4---4---4-|-4---4---4-2-0---|
|-----------------|-----------------|-----------------|---------------4-|

|-----------------|-----------------|-----------------|-----------------|
|-----------------|-----------------|-----------------|-----------------|
|---------2-------|-0-------2-------|-----------------|---2---3---2-----|
|-2-2-0-2---2-0-2-|---2-0-2---2-0-2-|-1-1-1-1-1-1-/-\-|-3---3---3---3---|

PRE-CHORUS

|-----------------|-----1-----------|-----------------|-----6-6-4-6-9-\-|
|---2-0-----------|-------4---------|-------------0---|---6-------------|
|-------4-2-0-----|---4-------4-----|---2-3-4---2-----|-----------------|
|-------------4-2-|-------------5-\-|---------------2-|-----------------|

|-----------------|-----------------|-----6-7/9-7-6-\-|-------------------|
|---2-0-----------|-----4/6---4-4---|---7-------------|-------------------|  9/8
|-------4-2-0-----|---4-----------4-|-----------------|-------------------| <---
|-------------4-2-|-----------------|-----------------|-1---0-1-0-1---3---|

CHORUS

|-----------------|-----------------|-----------------|-----------------|
|-3---------------|-----------------|-----------------|-----------------|
|-----------------|-----------------|-----------------|-----------------|
|-----------------|-----------------|-----------------|-----------------|

|-----------------|-----------------|-----------------|-----------------|
|-----------------|-----------------|-----------------|-----------------|
|-----------------|-----------------|-----------------|-----------------|
|-----------------|-----------------|-----------------|-----------------|

|-----------------|-----------------|-----------------|-----------------|
|-----------------|-----------------|-----------------|-----------------|
|-----------------|-----------------|-----------------|-----------------|
|-----------------|-----------------|-----------------|-----------------|

|-----------------|-----------------|-----------------|
|-----------------|-----------------|-5-5-5-5-5-5-/-\-|
|-----------------|-----------------|-----------------|
|-----------------|-----------------|-----------------|

|-----------------|-----------------|-----------------|-----------------|
|-----------------|-----------------|-------------0-2-|-5---------------|
|-----------------|-----2---3---2---|---0-0---0-3-----|---0---0---0-0---|
|-1-1-1-1-1-1-1-1-|-3-3---3---3---3-|-3-----3---------|---------------3-|

|-----------------|-----------------|-----------------|---2-2-5-2---5-\-|
|-----------------|-----------------|-----------0---0-|-2---------2-----|
|-----------------|---2---2---2---2-|---0-3-0-3---3---|-----------------|
|-1-1-1-1-1-1-1-1-|-3---3---3---3---|-3---------------|-----------------|
                                                  *:10   php php  *:10
|-----------------|-----------------|-----------------|-----*8*8--------|
|-----------------|---------0-------|---------0---0-7-|-*8*8----*-8-----|
|-----------------|---2---3---3-2---|-0-0-3-0---0-----|-------------*-\-|
|-1-1-1-1-1-1-1-1-|-3---3---------3-|-----------------|-----------------|

|-----------------|-----------------|-------------0-0-|-3-5-5-3-5-5-3-5-|
|-----------------|---0-0-0-0-------|-----1---1-3-----|-----------------|
|-----------------|-----------3-2---|-3-3---3---------|-----------------|
|-1-1-1-1-1-1-1-1-|-3-------------3-|-----------------|-----------------|

|-----------------|-----------------||
|-----------------|-----------------||
|-----------------|-----------------||
|-1-1-1-1-1-1-/-\-|-3-3-3-----------||





Comments


Popular L Arc En Ciel tabs & chords
Anata Chords
Dive To Blue Chords
Farewell Chords
Fate Chords
New World Chords
4th Avenue Cafe Intro Tabs
Drivers High Tabs
Heavens Drive Tabs
Honey Tabs
Lover Boy Tabs


Song lyrics



↑ Back to top | Tablatures and chords are parodies/interpretations of the original songs. You may use it for private study, scholarship, research or language learning purposes only
© 2014 AZChords.com Contact us | Privacy policy | DMCA | Add/correct tabs | Request tabs | Top 50 tabs