>
 >
Blurry Eyes

Blurry Eyes Guitar Tabs

L Arc En Ciel - Blurry Eyes chords, tabs, tablatures, lyrics

Guitar lessons | Add/correct | Request | Top 50 tabs Artists:  A B C D E F G H I J K L M N O P Q R S T U V W X Y Z 0-9

Blurry Eyes Guitar Tabs – L Arc En Ciel

CD, Sheet music, Poster

Do you like Blurry Eyes? Share with your friends now
Bass TabsChordsTabs
L`Arc en Ciel
 Blurry Eyes

 Tab por Mari no koibito


 Intro 1

 Guitarra 1
e|-------------------------------------|----------------------------------------------------|
B|-------------------------------------|----------------------------------------------------|
G|-------------------------------------|----------------------------------------------------|
D|-------------------------------------|----------------------------------------------------|
A|-------------------------------------|----------------------------------------------------|
E|-------------------------------------|----------------------------------------------------|
 Guitarra 2
e|-----5-------5--------------5--------|-------10---------10------9-------12--10-10-10--9---|
B|-------5-------5---3-----3-----3-----|----------10---------10---10--10--10--10-10-10--10--|
G|--7-------6-----------4-----------4--|--/12----------11--------------9--------------------|
D|-------------------------------------|----------------------------------------------------|
A|-------------------------------------|----------------------------------------------------|
E|-------------------------------------|----------------------------------------------------|


 Intro 2

 Guitarra 1
e|-14-------17-15-14-15-----------------------|-14-17-15-14----1715-14----------------------|
B|------15--------------15-151715-14-15-17-14-|---------------------------------------------|
G|--------14----------------------------------|-------------------------------------------*-|
D|--------------------------------------------|-------------------------------------------*-|
A|--------------------------------------------|---------------------------------------------|
E|--------------------------------------------|---------------------------------------------|
 Guitarra 2
e|----5-------5-------------5-----------------|-10----------10------9-----12-12-10-10-9-----|
B|------5-------5----3---3--------3-----------|----10----------10---10-10-10-10-10-10-10----|
G|--7-------6----------4----------------4-/12-|----------11-------------9-----------------*-|
D|--------------------------------------------|-------------------------------------------*-|
A|--------------------------------------------|---------------------------------------------|
E|--------------------------------------------|---------------------------------------------|
 Guitarra 1 
e|--2==-2h3p2--0-2---5---------|
B|--3==------------3----2-2-3--|
G|--2==------------------------|
D|-----------------------------|
A|-----------------------------|
E|-----------------------------|
 Guitarra 2
e|-----------------------------|
B|-----------------------------|
G|-----------------------------|
D|-----------------------------|
A|-----------------------------|
E|-----------------------------|


 Verso A

 Guitarra 1
e|-------------------------------------------------|
B|-------------------------------------------------|
G|-------------------------------------------------|
D|-------------------------------------------------|
A|-------------------------------------------------|
E|-------------------------------------------------|
 Guitarra 2
e|------0----------0----------0-------5---5--------|
B|--7-----7----5-----5----3-----3---3-------3---3--|
G|----7-----7----6-----6----4-----4-----4-----4----|
D|-------------------------------------------------|
A|-------------------------------------------------|
E|-------------------------------------------------|
 Guitarra 1
e|-----------------------------------------------------|
B|-----------------------------------------------------|
G|-----------------------------------------------------|
D|-----------------------------------------------------|
A|-----------------------------------------------------|
E|-----------------------------------------------------|
 Guitarra 2
e|------5------------5------------0-------3---0--------|
B|----3---3---3----3---3---3--2-----2---2-------2---2--|
G|--0-------0----0-------0------2-----2-----2-----2----|
D|-----------------------------------------------------|  (Verso A x2)
A|-----------------------------------------------------| 
E|-----------------------------------------------------|


 Verso B

 Guitarra 1
e|--3==3==3===5===3===2==2==2===3===2==---|
B|--3==3==3===3===3===2==2==2===2===2==---|
G|--4==4==4===4===4===3==3==3===3===3==*--|
D|-------------------------------------*--|
A|----------------------------------------|
E|----------------------------------------|
 Guitarra 2
e|----------------------------------------|
B|----------------------------------------|
G|--------------------------------------*-|
D|--------------------------------------*-|
A|----------------------------------------|
E|----------------------------------------|
 Guitarra 1
e|--0===------0===------0===------0===-----|
B|--3===------3===------5===------5===-----|
G|--4===------4===------6===------6===-----|
D|--5===------6===------7===------8===-----|
A|-----------------------------------------|
E|-----------------------------------------|
 Guitarra 2
e|----0---------0---------0---------0------|
B|-------3---------3---------5--------5----|
G|---------4---------4---------6--------6--|
D|--5---------6---------7---------8--------|
A|-----------------------------------------|
E|-----------------------------------------|


 Verso A

 Guitarra 1
e|------------------------2-x-x--x-x-x-x--x-x-x-x--|
B|--7-x-x-x-x--5-x-8-x-7--3-x-x--x-x-x-x--x-x-x-x--|
G|--7-x-x-x-x--7-x-7-x-6--4-x-x--x-x-x-x--x-x-x-x--|
D|--7-x-x-x-x--6-x-6-x-7---------------------------|
A|-------------------------------------------------|
E|-------------------------------------------------|
 Guitarra 2
e|------0----------0----------0-------5---5--------|
B|--7-----7----5-----5----3-----3---3-------3---3--|
G|----7-----7----6-----6----4-----4-----4-----4----|
D|-------------------------------------------------|
A|-------------------------------------------------|
E|-------------------------------------------------|
 Guitarra 1
e|--3-x-x--x-x-x-x--x-x-x-x----------------------------|
B|--3-x-x--x-x-x-x--x-x-x-x---5-x-x-x-x-x-8-x-5-x-8-x--|
G|--4-x-x--x-x-x-x--x-x-x-x---6-x-x-x-x-x-6-x-6-x-6-x--|
D|----------------------------7-x-x-x-x-x-7-x-7-x-7-x--|
A|-----------------------------------------------------|
E|-----------------------------------------------------|
 Guitarra 2
e|------5------------5------------0-------3---0--------|
B|----3---3---3----3---3---3--2-----2---2-------2---2--|
G|--0-------0----0-------0------2-----2-----2-----2----|
D|-----------------------------------------------------|  (Verso A x2)
A|-----------------------------------------------------|
E|-----------------------------------------------------|


 Verso B

 Guitar 1
e|--3==3==3===5===3===2==2==2===3===2==---|
B|--3==3==3===3===3===2==2==2===2===2==---|
G|--4==4==4===4===4===3==3==3===3===3==*--|
D|-------------------------------------*--|
A|----------------------------------------|
E|----------------------------------------|
 Guitar 2
e|----------------------------------------|
B|----------------------------------------|
G|--------------------------------------*-|
D|--------------------------------------*-|
A|----------------------------------------|
E|----------------------------------------|
 Guitar 1
e|--0===------0===------0===------0===-----|--0===---------2===--|
B|--3===------3===------5===------5===-----|--5===---------3===--|
G|--4===------4===------6===------6===-----|--6===---------4===--|
D|--5===------6===------7===------8===-----|--8===---------4===--|
A|-----------------------------------------|---------------2===--|
E|-----------------------------------------|---------------------|
 Guitar 2
e|----0---------0---------0---------0------|----0----------2===--|
B|-------3---------3---------5--------5----|-------3-------3===--|
G|---------4---------4---------6--------6--|--3------3-----4===--|
D|--5---------6---------7---------8--------|---------------4===--|
A|-----------------------------------------|---------------2===--|
E|-----------------------------------------|---------------------|


 Coro

 Guitarra 1
e|--2-2--2-2-2--2-2-2-2--0-0--0-0-0-0-0-0-0-0--|
B|--3-3--3-3-3--3-3-3-3--2-2--2-2-2-2-2-2-2-2--|
G|--2-2--2-2-2--2-2-2-2--2-2--2-2-2-0-0-0-0-0--|
D|--0-0--0-0-0--0-0-0-0--2-2--2-2-2-2-2-2-2-2--|
A|-----------------------0-0--0-0-0-1-1-1-1-1--|
E|---------------------------------------------|
 Guitarra 2
e|--2-2--2-2-2--2-2-2-2--0-0--0-0-0-0-0-0-0-0--|
B|--3-3--3-3-3--3-3-3-3--2-2--2-2-2-2-2-2-2-2--|
G|--2-2--2-2-2--2-2-2-2--2-2--2-2-2-0-0-0-0-0--|
D|--0-0--0-0-0--0-0-0-0--2-2--2-2-2-2-2-2-2-2--|
A|-----------------------0-0--0-0-0-1-1-1-1-1--|
E|---------------------------------------------|
 Guitarra 1
e|----2------2------2------2----3--3-3-3-3--0--0-0-0-0--|
B|------3------3------3------3--0--0-0-0-0--2--2-2-2-2--|
G|--4------3------2------1------0--0-0-0-0--2--2-2-2-2--|
D|------------------------------0--0-0-0-0--2--2-2-2-2--|  
A|------------------------------2--2-2-2-2--0--0-0-0-0--|
E|------------------------------3--3-3-3-3--------------|
 Guitarra 2
e|----2------2------2------2----3--3-3-3-3--0--0-0-0-0--|
B|------3------3------3------3--0--0-0-0-0--2--2-2-2-2--|
G|--4------3------2------1------0--0-0-0-0--2--2-2-2-2--|
D|------------------------------0--0-0-0-0--2--2-2-2-2--|  (Coro x2)
A|------------------------------2--2-2-2-2--0--0-0-0-0--|
E|------------------------------3--3-3-3-3--------------|


 Intermedio (de órgano pero en guitarra)

 Guitarra 1
e|----------------12-12h15--12h14p12--14------------------12-12h15--12h14p12--12h14p12-----|
B|--15--14-15--15------------------------15--15--14-15-15------------------------------15--|
G|-----------------------------------------------------------------------------------------|
D|-----------------------------------------------------------------------------------------|
A|-----------------------------------------------------------------------------------------|
E|-----------------------------------------------------------------------------------------|
 Guitarra 2
e|--2===--------------2===--------------------2===---------------3===----------------------|
B|--3===--------------3===--------------------3===---------------0===----------------------|
G|--2===--------------2===--------------------2===---------------0===----------------------|
D|---------------------------------------------------------------0===----------------------|
A|---------------------------------------------------------------2===----------------------|
E|---------------------------------------------------------------3===----------------------|


 Intermedio

 Guitarra 1
e|-------------------------------------|
B|-------------------------------------|
G|-------------------------------------|
D|-------------------------------------|
A|-------------------------------------|
E|-------------------------------------|
 Guitarra 2
e|-----0--------0--------0--------0----|
B|--3----3---2----2---3----3---2----2--|
G|--0--------2--------0--------2-------|
D|--0--------2--------0--------2-------|
A|--2--------0--------2--------0-------|
E|--3-----------------3----------------|


 Ken solo

 Guitarra 1
e|--17--/5------------------------------------7-9-10-9--9h10p9---s12--10h12p10--9--|
B|----------------7-8-10--8h10p8-------7-8-10------------------10------------------|
G|------------6-7----------------6-7-9---------------------------------------------|
D|----------9----------------------------------------------------------------------|
A|---------------------------------------------------------------------------------|
E|---------------------------------------------------------------------------------|
 Guitarra 2
e|----0---------0---------0---------0------|
B|-------3---------3---------5--------5----|
G|---------4---------4---------6--------6--|
D|--5---------6---------7---------8--------|
A|-----------------------------------------|
E|-----------------------------------------|
 Guitarra 1
e|--17-------------------17-------------------17----------------|
B|----s14-14-15-17-15-14----14h15p14----14-15----14-15-17-/19~--|
G|-----------------------------------16-------------------------|
D|--------------------------------------------------------------|
A|--------------------------------------------------------------|
E|--------------------------------------------------------------|
 Guitarra 2
e|----0---------0---------0---------0------|
B|-------3---------3---------5--------5----|
G|---------4---------4---------6--------6--|
D|--5---------6---------7---------8--------|
A|-----------------------------------------|
E|-----------------------------------------|


 Intermedio

 Guitarra 1
e|-----------------------------|-----------------------------------------------|
B|-----------------------------|-----------------------------------------------|
G|---------------------------*-|-----------------------------------------------|
D|---------------------------*-|-----------------------------------------------|
A|-----------------------------|-----------------------------------------------|
E|-----------------------------|-----------------------------------------------|
 Guitarra 2
e|----2-----2-----0-----0------|----2-----2-----0-----0-----2-----2-----0------|
B|------3-----3-----2-----2----|------3-----3-----2-----2-----3-----3-----2----|
G|--4-----0-----2------------*-|--4-----0-----2-----------4-----0-----2--------|
D|--------------------4------*-|--------------------4-----------------------4--|
A|-----------------------------|-----------------------------------------------|
E|-----------------------------|-----------------------------------------------|


 Ken solo 2

 Guitarra 1
e|-------------------------------------|---------------------------------------------------|
B|-------------------------------------|---------------------------------------------------|
G|-------------------------------------|---------------------------------------------------|
D|-------------------------------------|---------------------------------------------------|
A|-------------------------------------|---------------------------------------------------|
E|-------------------------------------|---------------------------------------------------|
 Guitarra 2
e|-----5-------5--------------5--------|-------10---------10------9-------12--10-10-10--9--|
B|-------5-------5---3-----3-----3-----|----------10---------10---10--10--10--10-10-10--10-|
G|--7-------6-----------4-----------4--|--/12----------11--------------9-------------------|
D|-------------------------------------|---------------------------------------------------|
A|-------------------------------------|---------------------------------------------------|
E|-------------------------------------|---------------------------------------------------|
 Guitarra 1
e|--14~-------17~--15-14-15--14--------------------------|
B|------15---------------------s17-15-15-17-15-14-15-17--|
G|---------14--------------------------------------------|
D|-------------------------------------------------------|
A|-------------------------------------------------------|
E|-------------------------------------------------------|
 Guitarra 2
e|-----5-------5--------------5--------|
B|-------5-------5---3-----3-----3-----|
G|--7-------6-----------4-----------4--|
D|-------------------------------------|
A|-------------------------------------|
E|-------------------------------------|
 Guitarra 1
e|--14~--17-15-14~--17-15-14~--------------------------|
B|----------------------------15s15s15-17-15-14-15-17--|
G|-----------------------------------------------------|
D|-----------------------------------------------------|
A|-----------------------------------------------------|
E|-----------------------------------------------------|
 Guitarra 2
e|-------10------------2---2---0--|
B|----------10---3-----3---3---2--|
G|--/12------------2---2---2---2--|
D|---------------------0---0---2--|
A|-----------------------------0--|
E|--------------------------------|


 Coro

 Guitarra 1
e|--2-2--2-2-2--2-2-2-2--0-0--0-0-0-0-0-0-0-0--|
B|--3-3--3-3-3--3-3-3-3--2-2--2-2-2-2-2-2-2-2--|
G|--2-2--2-2-2--2-2-2-2--2-2--2-2-2-0-0-0-0-0--|
D|--0-0--0-0-0--0-0-0-0--2-2--2-2-2-2-2-2-2-2--|
A|-----------------------0-0--0-0-0-1-1-1-1-1--|
E|---------------------------------------------|
 Guitarra 2
e|--2-2--2-2-2--2-2-2-2--0-0--0-0-0-0-0-0-0-0--|
B|--3-3--3-3-3--3-3-3-3--2-2--2-2-2-2-2-2-2-2--|
G|--2-2--2-2-2--2-2-2-2--2-2--2-2-2-0-0-0-0-0--|
D|--0-0--0-0-0--0-0-0-0--2-2--2-2-2-2-2-2-2-2--|
A|-----------------------0-0--0-0-0-1-1-1-1-1--|
E|---------------------------------------------|
 Guitarra 1
e|----2------2------2------2----3--3-3-3-3--0--0-0-0-0--|
B|------3------3------3------3--0--0-0-0-0--2--2-2-2-2--|
G|--4------3------2------1------0--0-0-0-0--2--2-2-2-2--|
D|------------------------------0--0-0-0-0--2--2-2-2-2--|  
A|------------------------------2--2-2-2-2--0--0-0-0-0--|
E|------------------------------3--3-3-3-3--------------|
 Guitarra 2
e|----2------2------2------2----3--3-3-3-3--0--0-0-0-0--|
B|------3------3------3------3--0--0-0-0-0--2--2-2-2-2--|
G|--4------3------2------1------0--0-0-0-0--2--2-2-2-2--|
D|------------------------------0--0-0-0-0--2--2-2-2-2--|  (Coro x4)
A|------------------------------2--2-2-2-2--0--0-0-0-0--|
E|------------------------------3--3-3-3-3--------------|


 Verse C

 Guitarra 1
e|-------------------------------------|
B|-------------------------------------|
G|-------------------------------------|
D|-------------------------------------|
A|-------------------------------------|
E|-------------------------------------|
 Guitarra 2
e|-----2-------2-------0-------0-------|
B|-------3-------3-------2-------2-----|
G|--4-------0-------2---------------*--|
D|--------------------------4-------*--|
A|-------------------------------------|
E|-------------------------------------|
 Guitarra 1
e|--x-x-2-x-x-2-x-x-2-x-x-2-x-x-2-x-x-2-x-x-2-x-x-2--|
B|--x-x-3-x-x-3-x-x-3-x-x-3-x-x-3-x-x-3-x-x-3-x-x-3--|
G|--x-x-4-x-x-4-x-x-4-x-x-4-x-x-4-x-x-4-x-x-4-x-x-4--|
D|--------------------------x-x-5-x-x-5-x-x-5-x-x-5--|
A|---------------------------------------------------|
E|---------------------------------------------------|
 Guitarra 2
e|---------2-----------------------2-----------------|
B|---------------3-----------------------3-----------|
G|--4-----------------------0------------------------|
D|---------------------------------------------------|
A|---------------------------------------------------|
E|---------------------------------------------------|
 Guitarra 1
e|--x-x-0-x-x-0-x-x-0-x-x-0-x-x-0-x-x-0-x-x-0-x-x-0----|
B|--x-x-2-x-x-2-x-x-2-x-x-2-x-x-2-x-x-2-x-x-2-x-x-2----|
G|--x-x-2-x-x-2-x-x-2-x-x-2-x-x-3-x-x-3-x-x-3-x-x-3--*-|
D|--------------------------x-x-4-x-x-4-x-x-4-x-x-4--*-|
A|-----------------------------------------------------|
E|-----------------------------------------------------|
 Guitarra 2                 
e|----------0----------------------0-------------------|
B|---------------2-----------------------2-------------|
G|--2------------------------------------------------*-|
D|--------------------------4------------------------*-| 
A|-----------------------------------------------------|
E|-----------------------------------------------------|


 Final

 Guitarra 1
e|-----------------------------|-----------------------------------------------|
B|-----------------------------|-----------------------------------------------|
G|---------------------------*-|-----------------------------------------------|
D|---------------------------*-|-----------------------------------------------|
A|-----------------------------|-----------------------------------------------|
E|-----------------------------|-----------------------------------------------|
 Guitarra 2
e|----2-----2-----0-----0------|----2-----2-----0-----0-----2-----2-----0------|
B|------3-----3-----2-----2----|------3-----3-----2-----2-----3-----3-----2----|
G|--4-----0-----2------------*-|--4-----0-----2-----------4-----0-----2--------|
D|--------------------4------*-|--------------------4-----------------------4--|  Fin!!!
A|-----------------------------|-----------------------------------------------|
E|-----------------------------|-----------------------------------------------| 



  Blurry Eyes
  [L'Arc~en~Ciel]

  Tooku no kaze wo
  Mi ni matou
  Anata ni wa todokanai
  Kotoba narabete mite mo
  Mata shisen wa dokoka
  Mado no mukou

  Kawaranai yokan wa tsuzuite iru
  Ano hibi sae kumotte...

  Kago no naka no
  Tori no you na
  Usturo na me ni furete iru
  Gogo no hizashi wa maru de
  Anata wo soto he
  Sasou hikari

  Kawaranai yokan wa tsuzuite iru
  Ano hibi sae kumotte shimau

  Meguri kuru toki ni
  Yakusoku wo ubaware sou	
  Kono ryoute sashinobete mo
  Kokoro wa hanarete

  [Bass solo & Guitar solo]

  (Why do you stare at the sky with your blurry eyes?)

  [Guitar solo]

  Meguri kuru toki ni
  Yakusoku wo ubaware sou
  Kono ryoute sashinobete mo
  Kokoro wa hanarete

  Meguri kuru toki ni
  Taisetsu na hito wa mou
  Furimuita sono hitomi ni
  Chiisa na tameiki
 
  (Your blurry eyes)... your blurry eyes
  (Your blurry eyes)... kokoro wa
  (Your blurry eyes)... hanarete
  (Your blurry eyes)... yuku





Comments


Popular L Arc En Ciel tabs & chords
Dive To Blue Bass Tabs
Heavens Drive Bass Tabs
Kayleigh Ver Bass Tabs
Stay Away Bass Tabs
Farewell Chords
Hello Chords
Loreley Chords
Acoustic Alchemy Tabs
Heavens Drive Tabs
Perfect Blue Ken Part Tabs


Song lyrics



↑ Back to top | Tablatures and chords are parodies/interpretations of the original songs. You may use it for private study, scholarship, research or language learning purposes only
© 2014 AZChords.com Contact us | Privacy policy | DMCA | Add/correct tabs | Request tabs | Top 50 tabs