» » »

Black Dahlia Tabs (ver.1)

Artists:  A B C D E F G H I J K L M N O P Q R S T U V W X Y Z # 

Black Dahlia Tabs (ver.1)

Lamb Of God
Rating:
0/5 (0 votes)

Hard to play? Try these video lessons and learn fast.
                
Copyright (c)  Prosthetics/Metal Blade 2000
Version 1.0 - (8/19/2006)



.  - palm mute              ~  - vibrato
p  - pull off


Tuning D A D G B E


 A (0:15)     Gtr. 1                (x10)
|----------------------------------------|
|----------------------------------------|
|----------------------------------------|
|----------------------------------------|
|--------7---10---11p8---9p5---------5---|
|--0-0-----0----0------0------0-0-3-6----|
P.M. .     .    .      .      . . . .

 B (0:20)     Gtr. 2 (Harmonized)    (x8)
|----------------------------------------|
|----------------------------------------|
|----------------------------------------|
|----------------------------------------|
|------10--12--15p12---13p9---------5----|
|-0-0-----0---0------0-------0-0-3-6-----|
PM. .     .   .      .       . . . .

 C (0:41)                   (x4)   (0:51)                   (x4)
|-------------------------------|-------------------------------|
|-------------------------------|-------------------------------|
|-------------------------------|-------------------------------|
|-------------------------------|-------------------------------|
|-------------------------------|-------------------------------|
|-0-0--2-0-5-0-6-3--0--55555535-|-0-0--2-0-5-0-6-3---0--3335535-|
PM. .                  ........   . .                   .......

 D (1:02)
|-----------------------------------------------------|
|-----------------------------------------------------|
|-----------------------------------------------------|
|-----------------------------------------------------|
|-----6-6----6------6--6----------------6--6----------|
|-0-0--0-0-0--0--0---0--0-----1--0-------0--0-0-----0-|
PM. .  . . .  .  .   .  .     .  .       .  . .     ^Let Ring

 E (1:07)
||---------------------------------------------------------------||
||---------------------------------------------------------------||
||---------------------------------------------------------------||
||---------------------------------------------------------------||
||-----------------------------5-------------------------------5-||
||0-0-0-0-0-0--0--000-0-000-0-6-6-0-0-0-0-0-0- 0-000-0-000--0-6-6||
PM. . . . . .  .  ... . ... . ... . . . . . .  . ... . ...  . ...||
|| F                                                             ||
||-----------------------|--------||                             ||
||-----------------------|--------||                             ||
||-----------------------|--------||                             ||
||-----------------------|--------||                             ||
||-----------------------|--------|| Play both these measures x6 ||
||-10-11-13-8-11-13------|--1--1--|| --------------------------  ||
PM  .  .  . .  . .          .  .

 G (1:46)
|------------------------------------------------|\
|------------------------------------------------| |
|------------------------------------------------| |
|------------------------------------------------| |
|-----2---1-----------2-3-4-5--------------------| |
|-2-3---3---3--2-3-0---3-3-3-3-------------------| |
PM. .   .   .  . . .   . . . .                   | |-Play both
 H                                                | | these
|------------------------------------------------| | measures
|------------------------------------------------| | 2x
|------------------------------------------------| |
|------------------------------------------------| |
|----------2---1-----------2---1--------4---5----| |
|-2-3--2-3---3---3--2-3-0----3---3--0-0---3------|/
PM. .  . .   .   .  . . .    .   .

 I (1:57)                                                       (x4)
|-------------------------------------------------------------------|
|-------------------------------------------------------------------|
|-------------------------------------------------------------------|
|-------------------------------------------------------------------|
|-----2---1-------2-3-4-5-------------2---1----------2-1--------4-5-|
|-333---3----2-3---3-3-3-3--333-333-----3---3--2-333--3-3--2-3------|
PM...   .    . .   . . . .  ... ...     .   .  . ...  . .  . .

 J (2:20)
|---------|-----|-------------|-------|---------|-----|-------------|
|---------|-----|-------------|-------|---------|-----|-------------|
|---------|-----|-------------|-------|---------|-----|-------------|
|---------|-----|-------------|-------|---------|-----|-------------|
|---------|-----|-------------|-------|---------|-----|-------------|
|-000-000-|-000-|-000-000-000-|-00000-|-000-000-|-000-|-000-000-000-|
PM... ...   ...   ... ... ...   .....   ... ...   ...   ... ... ...
 K          (2:29)
|-------|-------------------------------------|\
|-------|-------------------------------------| |Repeat till
|-------|-----------~8-~8-~8-------~8-~8-~8---| |Next Riff
|-------|-------------------------------------| |
|-------|-------------------------------------| |
|-00000-|-000-000-------------000-------------|/
PM.....   ... ...             ...
 L (2:55)
|-------------------|
|-------------------|
|-------------------|
|-------------------|
|-----------------0-|
|-0-0-2-0-5-0-6---0-|
PM

 M (2:57)                     (x4) (0:51)                 (x4)
|------------------------------|------------------------------|
|------------------------------|------------------------------|
|------------------------------|------------------------------|
|------------------------------|------------------------------|
|------------------------------|------------------------------|
|-0-0--2-0-5-0-6p3--0-55555535-|-0-0--2-0-5-0-6p3--0--5555535-|
PM. .    .   .      . ........                        ...  .
 N (3:18)
|-------|
|-------|
|-------|
|-------|
|-0---0-|
|-0---0-|

END


SEQUENCE
--------- -                               -  --------
-----------------------------------------------------
|| 0:15 ||=A
|| 0:20 ||=B
|| 0:41 ||=C
|| 1:02 ||=D
|| 1:07 ||=E&F
|| 1:46 ||=G%H
|| 1:57 ||=I
|| 2:20 ||=J
|| 2:29 ||=K
|| 2:55 ||=L
|| 2:57 ||=M
|| 3:18 ||=N
|| 3:19 ||=End
-----------------------------------------------------
--------- -                                - --------   
            
Hard to play? Try these video lessons and learn fast. | Correct




comments powered by Disqus
↑ Back to top | Tablatures and chords are parodies/interpretations of the original songs. You may use it for private study, scholarship, research or language learning purposes only