>
 >
An Extra Nail For Your Coffin

An Extra Nail For Your Coffin Guitar Tabs

Lamb Of God - An Extra Nail For Your Coffin chords, tabs, tablatures, lyrics

Guitar lessons | Add/correct | Request | Top 50 tabs Artists:  A B C D E F G H I J K L M N O P Q R S T U V W X Y Z 0-9

An Extra Nail For Your Coffin Guitar Tabs – Lamb Of God

CD, Sheet music, Poster

Do you like An Extra Nail For Your Coffin? Share with your friends now
Bass TabsTabs
I don't think a lot of people know of this song, but it really does slay.

Riff 1 (x4)
e|----------------------------------------------------|
b|----------------------------------------------------|
G|----------------------------------------------------|
D|----------------------------------------------------|
A|-----------------3p2---2----------------3p2---------|
D|-2-2-2-2-2-2-2-2-3p2-2-2--2--2--2-2-2-2-3p2-2-2-2-2-|
pm . . . . . . . .     .    .  .  . . . .     . . . .

e|----------------------------------------------------|
b|----------------------------------------------------|
G|----------------------------------------------------|
D|----------------------------------------------------|
A|-----------------3p2------------3p2--5-4-2-3--------|
D|-2-2-2-2-2-2-2-2-3p2-2-2--2--2--3p2--5-4-2-3--------|
pm . . . . . . . .     . .  .  .

Riff 2 (x2)
e|-------------------------------------------------------------------|
b|-------------------------------------------------------------------|
G|-------------------------------------------------------------------|
D|-------------------------------------------------------------------|
A|-0-0-0-0-1-0-0-0-3-0-0-0-1-0-0-0-3-0-0-0-1-0-0-0-6-5-3-2-5-3-2-0---|
D|-------------------------------------------------------------------|
pm . . . . . . . . . . . . . . . . . . . . . . . . . . . . . . . .

Riff 3 (x4)
e|-------------------------------------------------------------------|
b|-------------------------------------------------------------------|
G|-------------------------------------------------------------------|
D|-------------------------------------------------------------------|
A|-------------------------------------------------------------------|
D|-2-2-2-2-2-2-2-2-3-3-3-3-2-2-2-2----2-2-2-2-2-2-5-5-4-4-2-2-3-3----|
pm . . . . . . . . . . . . . . . .    . . . . . . . . . . . . . .

Riff 4a (x2)
e|----------------------------------|
b|----------------------------------|
G|----------------------------------|
D|----------------------------------|
A|----------------------------------|
D|-22-22-22222-22-22-22222-22-2-1b~-|
pm .. .. ..... .. .. ..... .. .

Riff 3 (x2)
Riff 4a (x1)


Riff 4b (x1)
e|---------------------------------------|
b|---------------------------------------|
G|---------------------------------------|
D|---------------------------------------|
A|------------------------------4--------|
D|-22-22-22222-22-22-22222-22-2---22-1b~-|
pm .. .. ..... .. .. ..... .. .   ..


Riff 5a (x2)
e|-----------------------------------|
b|-----------------------------------|
G|-----------------------------------|
D|-----------------------------------|
A|--------------------------4--------|
D|-00-00-00000-00-00-000-00---00-1b~-|
pm .. .. ..... .. .. ... ..   ..


Riff 5b (x1)
e|-----------------------------------|
b|-----------------------------------|
G|-----------------------------------|
D|-----------------------------------|
A|-----------------------------------|
D|-00-00-00000-00-00-00000-00-0-1b~--|
pm .. .. ..... .. .. ..... .. .


Riff 5a (x1)
Riff 2 (x2)
Riff 3 (x4)
Riff 4a (x1)
Riff 4b (x1)
Riff 5a (x2)
Riff 5b (x1)
Riff 5a (x3)
Riff 5b (x1)
Riff 5a (x3)
Riff 5b (x1)
Riff 5a (x1)

e|-----------------------------------|
b|-----------------------------------|
G|-----------------------------------|
D|-0~~~------------------------------|
A|-0~~~------------------------------|
D|-0~~~------------------------------|

Here's the riff played over Riff 5:

Play this segment twice
e|-------------------------------|
b|-4--4--4--4--4--4--4--4--------|
G|--7--7--7--7--7--7--7--7-------|
D|-------------------------------|
A|-------------------------------|
D|-------------------------------|

Then this segment twice....then repeat both until riff 6
e|-------------------------------|
b|-3--3--3--3--3--3--3--3--------|
G|--6--6--6--6--6--6--6--6-------|
D|-------------------------------|
A|-------------------------------|
D|-------------------------------|


Riff 6a (x2) [This is probably my favorite LOG riff ever...just repeat this bit until 
end of the song]


Guitar I
e|--------------------------------------------|
b|--------------------------------------------|
G|--------------------------------------------|
D|--------7---7h8---------7---7h8p7-5---------|
A|--------------------------------------------|
D|-8b~--8---8-----8-8-8-8---8-----------------|
pm      .   .     . . . .   .

e|--------------------------------------------|
b|--------------------------------------------|
G|--------------------------------------------|
D|--------------------------------------------|
A|-------10---10/12/8-----7---7/10/7---5/7/3--|
D|-0~--0----0---------0-0---0--------0--------|
pm     .    .         . .   .        .

Guitar II
e|--------------------------------------------|
b|--------------------------------------------|
G|--------------------------------------------|
D|-------10---10h12---------10---10h12p10-8---|
A|--------------------------------------------|
D|-8b~-8----8-------8-8-8-8----8--------------|
pm     .    .       . . . .    .

e|--------------------------------------------|
b|--------------------------------------------|
G|--------------------------------------------|
D|--------------------------------------------|
A|-------10---10/12/8-----7---7/10/7---5/7/3--|
D|-0~--0----0---------0-0---0--------0--------|
pm     .    .         . .   .        .

Guitar III
e|-------------------------------|
b|-------------------------------|
G|-------------------------------|
D|-8~~---------------------------|
A|-8~~---------------------------|
E|-8~~---------------------------|


e|-------------------------------|
b|-------------------------------|
G|-------------------------------|
D|-0~~---------------------------|
A|-0~~---------------------------|
E|-0~~---------------------------|


Riff 6b (x2)

Guitar I
e|--------------------------------------------|
b|--------------------------------------------|
G|--------------------------------------------|
D|--------7---7h8---------7---7h8p7-5---------|
A|--------------------------------------------|
D|-8b~--8---8-----8-8-8-8---8-----------------|
pm      .   .     . . . .   .

e|--------------------------------------------|
b|--------------------------------------------|
G|--------------------------------------------|
D|------7---7h8---------5---------------------|
A|--------------------------7-8-10------------|
D|-5~-5---5-----3-3-3-3---3-------------------|
pm    .   .     . . . .   . . . .


Guitar II
e|--------------------------------------------|
b|--------------------------------------------|
G|--------------------------------------------|
D|-------10---10h12---------10---10h12p10-8---|
A|--------------------------------------------|
D|-8b~-8----8-------8-8-8-8----8--------------|
pm     .    .       . . . .    .


e|--------------------------------------------|
b|--------------------------------------------|
G|--------------------------------------------|
D|------7---7h8---------5---------------------|
A|--------------------------7-8-10------------|
D|-5~-5---5-----3-3-3-3---3-------------------|
pm    .   .     . . . .   . . . .


Guitar III
e|-------------------------------|
b|-------------------------------|
G|-------------------------------|
D|-8~~---------------------------|
A|-8~~---------------------------|
E|-8~~---------------------------|

e|-------------------------------|
b|-------------------------------|
G|-------------------------------|
D|-5~~---------------------------|
A|-5~~---------------------------|
E|-5~~----------3-3-3-3-3-3------|
pm              . . . . . .


I figured this out and tabbed it all in one night. Sorry guys, no solo...but this should 
100% perfect. Enjoy.





Comments


Popular Lamb Of God tabs & chords
As The Palaces Burn Bass Tabs
Black Label 5 Bass Tabs
In The Absence Of The Sacred Bass Tabs
Reclamation Bass Tabs
11th Hour 1 Tabs
As The Palaces Burn Tabs
Descending 2 Tabs
Laid To Rest 1 Tabs
Nippon Tabs
Omerta 3 Tabs


Song lyrics



↑ Back to top | Tablatures and chords are parodies/interpretations of the original songs. You may use it for private study, scholarship, research or language learning purposes only
© 2014 AZChords.com Contact us | Privacy policy | DMCA | Add/correct tabs | Request tabs | Top 50 tabs