» » »

Lamb Of God, A Devil In God's Country Bass tabs (ver.1)

Artists:  A B C D E F G H I J K L M N O P Q R S T U V W X Y Z # 

A Devil In God's Country Bass tabs (ver.1)

Lamb Of God Tabs
Rating:
0/5 (0 votes)
A Devil In God's Country lessons Tabs too difficult? Try these video lessons and learn fast
                -------------------------------------------------------------------------------
-------------------------------------------------------------------------------


Tuning:EADG

Intro
G |---------------------------------------------------|
D |---------------------------------------------------|
A |---------------------------------------------------|
D |--000-(rest)-000-(rest)-000-(rest)--3~-1~-1p0-1h3--|

Riff 1
G |----------------------------------------------------------|
D |----------------------------------------------------------|
A |--5----6----8----6----9p8----5----6----8----6----6p5-6h8--|
D |----00---00---00---00-----00---00---00---00---00----------|

G |--------------------------------------------|
D |--------------------------------------------|
A |--5----6----8----6----9p8-------------------|
D |----00---00---00---00-----00-3~-1~-1p0-1h3--|

Riff 2
G |-------------------------------------------------------|
D |-------------------------------------------------------|
A |---------------------------6p5-6p5-8p6-8p6-10p8-12p10--|
D |--0000-3-00-1-0000-1p0-3h4-----------------------------|

G |-------------------------------------------------------|
D |-------------------------------------------------------|
A |---------------------------6p5-6p5-8p6-8p6-12p10-8h10--|
D |--0000-3-00-1-0000-1p0-3h4-----------------------------|

Riff 3
G |------------------------|
D |------------------------|
A |------------------------|
D |--11-11-3~-00-00-1h3p0--|

Riff 4
G |----------------------------------------------------------|
D |----------------------------------------------------------|
A |--------------------------2^-------------------------3-1--|
D |--6-5-3-4-6-5-3-4-6-5-3-4----6-5-3-4-6-5-3-4-6-5-3-4------|

G |--------------------------------------------------------|
D |--------------------------------------------------------|
A |--------------------------2^-----------------3-1--------|
D |--6-5-3-4-6-5-3-4-6-5-3-4----6-5-3-4-6-5-3-4-----1~-4~--|

Intro
G |---------------------------------------------------|
D |---------------------------------------------------|
A |---------------------------------------------------|
D |--000-(rest)-000-(rest)-000-(rest)--3~-1~-1p0-1h3--|

Riff 2
G |-------------------------------------------------------|
D |-------------------------------------------------------|
A |---------------------------6p5-6p5-8p6-8p6-10p8-12p10--|
D |--0000-3-00-1-0000-1p0-3h4-----------------------------|

G |-------------------------------------------------------|
D |-------------------------------------------------------|
A |---------------------------6p5-6p5-8p6-8p6-12p10-8h10--|
D |--0000-3-00-1-0000-1p0-3h4-----------------------------|

Riff 3
G |------------------------|
D |------------------------|
A |------------------------|
D |--11-11-3~-00-00-1h3p0--|

Riff 5
G |-------------------------------------|
D |-------------------------------------|
A |-------------------------------------|
D |--000-000-00000000-000-000-00000000--|

Riff 6
G |-------------------------|
D |-------------------------|
A |-------------------------|
D |--6-6-000-6-6-000-6-6-6--|

| /  slide up
| \  slide down
| h  hammer-on
| p  pull-off
| ~  vibrato
| +  harmonic
| x  Mute note
| ^  Bend Note
===============================================================================
            
Submit corrections

comments powered by Disqus
↑ Back to top | Lamb Of God Bass for A Devil In God's Country. Lyrics for acoustic guitar and electric guitar. Tablatures and chords are parodies/interpretations of the original songs. You may use it for private study, scholarship, research or language learning purposes only