» » »

Lagwagon, Violins Tabs (ver.3)

Artists:  A B C D E F G H I J K L M N O P Q R S T U V W X Y Z # 

Violins Tabs (ver.3)

Lagwagon Tabs
 Rating:
4/5 (4 votes)
Violins lessons Tabs too difficult? Try these video lessons and learn fast
                Written by Lagwagon

This is a great song off the world-famous "Hoss" album, which I highly 
recommend if you don't yet have it:

Intro: (1x)
E--------------------
B--------------------
G---5-------9---10---
D---5---5---9---10---
A---3---5---7----8---
E-------3------------
    C   G   Eii  Fii

Verse:
Play the same progression 3x, palm muted.

Bridge: (1x)
E-------------------------
B-------------------------
G---5-----------10---12---
D---5---5---7---10---12---
A---3---5---7----8---10---
E-------3---5-------------
    C   G   A   Fii  Gii

Chorus: (2x)
E------------------------
B------------------------
G---5---15---10---12-----
D---5---15---10---12-----
A---3---13----8---10-----
E------------------------
    C   Bb*  Fii  Gii     

(The second time through the chorus, play the Bb* chord at the end, just 
before the solo)

Solo:
E----------------------------------------------------------
B------5-------5-6-5-6-8-6-5-6-5-----------5-------5-6-5-6-
G--5-7---7-5-7-------------------7-5-4-5-7---7-5-7---------
D----------------------------------------------------------
A----------------------------------------------------------
E----------------------------------------------------------

E------------5-8---------
B--8-6-5-6-8-----8-6-6r--
G------------------------
D------------------------
A------------------------
E------------------------

Outro: ("Violins. . .")
Fii  Gii  C  F  (3x)
Fii  Gii  C (let ring)

Order:
Intro - Verse - Bridge - Chorus - Verse - Bridge - Chorus - 
Solo - Verse - Bridge - Chorus - Outro

Lyrics:
(Verse) I am just another fool and I have to keep telling myself that. I 
am just a hypocrite and I have to keep calling you one. Cause I forgot to 
bite my tongue, and my assumption is the mother of all mistakes.
(Bridge) As I assume the role, open my mouth, and clumsy words escape.
(Chorus) So why you want to be there, when you could be here, you are 
slipping away. 
(Verse) I awake with your replacement, a bottle in my grasp, in an 
unfamiliar place. Because you put me out, the butt of a sick joke, into 
the ashtray as you come and go. Cause I forgot to service you and we 
broke down, and you can't live with my mistakes. 
(Bridge) So I assume false grace, open my arms, and grasp at something true.
(Chorus) How are you? How have you been? Girl I miss you, want to see you 
again.
(Verse) I bring out the worst in you, and you try to let me know. You 
bring out the wrost in me, anxiety, I'm trying to let you go. You say I'm 
giving you the creeps. So I assume the role, open my claws and grasp for 
your heart.
(Chorus) Into you, like a mortal stake, so vindictive, your love's 
slipping away.
(Outro) Violins, violence, the butt of your sick joke. Into this ashtray 
life. I'm trying hard to let you go.


Whew! That's all. I hope you like what you see. If you like what I've 
done, or if you don't, or if you have a request or want to talk about one 
of the best bands around, Lagwagon, drop me a line! Thanx

Luke
            
Submit corrections

comments powered by Disqus
↑ Back to top | Lagwagon Tabs for Violins. Lyrics for acoustic guitar and electric guitar. Tablatures and chords are parodies/interpretations of the original songs. You may use it for private study, scholarship, research or language learning purposes only