» » »

Lagwagon, Messengers Tabs (ver.2)

Artists:  A B C D E F G H I J K L M N O P Q R S T U V W X Y Z # 

Messengers Tabs (ver.2)

Lagwagon Tabs
 Rating:
4/5 (4 votes)
Messengers lessons Tabs too difficult? Try these video lessons and learn fast
                Guitar 1 
|---------------------------------------------------------------------------
|---------------------------------------------------------------------------
|---------------------------------------------------------------------------
|-5--5-5-5-5-5-5-----5-5-4--5--5-5-5-5-5-5-----5-5-4-2-2-2-2-2-2-2--5-5-----
|-3--3-3-3-3-3-3-5-5-3-3-2--3--3-3-3-3-3-3-5-5-3-3-2-0-0-0-0-0-0-0--3-3-5-5-
|----------------3-3-----------------------3-3--------------------------3-3-
     * * * * * *   *   *      * * * * * *    *   *     * * * * * *    *
  *

|----------------------|
|----------------------|
|----------------------|
|----------------------|
|-5-5-3-3-3-3-3-3-3-5--|
|-3-3-1-1-1-1-1-1-1-3--|
    *   * * * * * *


VERSE 1 (Up until the end of the riff under "One thing is true..")

Guitar 1
|----------------------------------------------------------------------------
|----------------------------------------------------------------------------
|---------------------5--5----------------------5--5----------------------7-7
|-5-5-5-5--5-5--3-3-3-------5-5-5-5--5-5--5-5-5------7-7-7-7--7-7--7-7-7-----
|-3-3-3-3--3-3--5-5-5-------3-3-3-3--3-3--3-3-3------5-5-5-5--5-5--5-5-5-----
|----------------------------------------------------------------------------
           *                         *                         *

|----------------------------------------------------------------------------
|----------------------------------------------------------------------------
|---------------------7--7----
            
Submit corrections

comments powered by Disqus
↑ Back to top | Lagwagon Tabs for Messengers. Lyrics for acoustic guitar and electric guitar. Tablatures and chords are parodies/interpretations of the original songs. You may use it for private study, scholarship, research or language learning purposes only