» » »

Love Story Tabs (ver.1)

Artists:  A B C D E F G H I J K L M N O P Q R S T U V W X Y Z # 

Love Story Tabs (ver.1)

Lagwagon
Rating:
0/5 (0 votes)

Hard to play? Try these video lessons and learn fast.
                PROPS GO TO: joebob

good song i like it have fun look for moe of my tabs bye
Intro Guitar 1
e|--0-0-0-0-0-0-------------------------------------------------------|
B|--1-0-1-3-1-0-------------------------------------------------------|
G|--2-2-2-2-2-2-------------------------------------------------------|
D|--2-2-2-2-2-2-------------------------------------------------------|
A|--------------------------------------------------------------------|
E|--------------------------------------------------------------------|

Inro Guitar 2
e|--------------------------------------------------------------------|
B|--------------------------------------------------------------------|
G|-7-7-7-7---------5-5-5-5--------------------------------------------|
D|-7-7-7-7-6-6-6-6-5-5-5-5-4-4-4-4-3-3-3-3-5-5-5-5--------------------|
A|-5-5-5-5-7-7-7-7-3-3-3-3-5-5-5-5-3-3-3-3-5-5-5-5--------------------|
E|---------------------------------1-1-1-1-3-3-3-3--------------------|

Verse
e|------------------0-0-0-0-3-3-3-3-----------------------------------|
B|------------------1-1-1-1-3-3-3-3-----------------------------------|
G|--5-5-5-5-5-5-5-5-2-2-2-2-0-0-0-0-----------------------------------|
D|--5-5-5-5-5-5-5-5-2-2-2-2-0-0-0-0-3-3-3-3---------------------------|
A|--3-3-3-3-2-2-2-2---------x-x-x-x-3-3-3-3---------------------------|
E|--------------------------3-3-3-3-1-1-1-1---------------------------|

Chorus:C5>C5Maj7>G5>F>G>C5>Bdim>Am>G5>F
e|---------------------------------3-3-3-3---------x-x-x-x-0-0-0-0-----------------|
B|---------------------------------3-3-3-3---------7-7-7-7-1-1-1-1-----------------|
G|-5-5-5-5-5-5-5-5-----------------0-0-0-0-5-5-5-5-7-7-7-7-2-2-2-2-----------------|
D|-5-5-5-5-5-5-5-5-5-5-5-5-3-3-3-3-0-0-0-0-5-5-5-5-6-6-6-6-2-2-2-2-5-5-5-5-3-3-3-3-|
A|-3-3-3-3-2-2-2-2-5-5-5-5-3-3-3-3-x-x-x-x-3-3-3-3-x-x-x-x---------5-5-5-5-3-3-3-3-|
E|-----------------3-3-3-3-1-1-1-1-3-3-3-3---------7-7-7-7---------3-3-3-3-1-1-1-1-|
            
Hard to play? Try these video lessons and learn fast. | Correct




comments powered by Disqus
↑ Back to top | Tablatures and chords are parodies/interpretations of the original songs. You may use it for private study, scholarship, research or language learning purposes only