» » »

Lagwagon, Falling Apart Tabs (ver.2)

Artists:  A B C D E F G H I J K L M N O P Q R S T U V W X Y Z # 

Falling Apart Tabs (ver.2)

Lagwagon Tabs
 Rating:
3.6/5 (7 votes)
Falling Apart lessons Tabs too difficult? Try these video lessons and learn fast
                --------------------------
\/\/\/\/\/\/\/\/\/\/\/\/\/
      FALLING APART
/\/\/\/\/\/\/\/\/\/\/\/\/\
--------------------------

Band : Lagwagon

TUNING : STANDARD



         PLEASE NOTE : THIS IS NOT THE OFFICIAL TABS



INTRO: guitar 1: all notes x4, except last E
e|---------------------------------------------------------------------------|
B|---------------------------------------------------------------------------|
G|-4--5--6--7--6--10-11-8--13--8--9--4--6--8--9------------------------------|
D|--------------------------------------------9------------------------------|
A|-2--3--4--5--4--8--9--6--11--6--7--2--4--6--7-2-2-2-2-2-2-2----------------|
E|----------------------------------------------0-0-0-0-0-0-0----------------|
                                                * * * * * * *

VERSE:
E|---------------------------------------------------------------------------|
B|---------------------------------------------------------------------------|
G|---------------------------------------------------------------------------|
D|-------6--------------------6----------------------------------------------|
A|-2--6--4--2--7--7--4--2--6--4--2--7--9--2-2-2-2-2-2-2-2--------------------|
E|-0--4-----0--5--4--2--0--4-----0--5--7--0-0-0-0-0-0-0-0--------------------|
                                          * * * * * * * *

INTERLUDE:
E|-------|--------|-------|-------|
B|-------|--------|-------|-------|
G|-------|--------|-------|-------|
D|-6-6-6-|-6-6-6--|-------|-------|
A|-4-4-4-|-4-4-4--|-7-7-7-|-6-6-6-|
E|-------|--------|-5-5-5-|-4-4-4-|
   * * *   * * *    * * *   * * * 

GTR2
E|------------|
B|-5----------|
G|---6-----6--|
A|------6-----|
D|------------|
E|------------|
   * *  *  *

INTERLUDE PART 2:
E|---------------------------------------------------------------------|
B|---------------------------------------------------------------------|
G|---------------------------------------------------------------------|
D|---------------------------------------------------------------------|
A|-2222222222222222-6666666666666666-7777777777777777-9999999999999999-|
E|-0000000000000000-4444444444444444-5555555555555555-7777777777777777-|
   **************** **************** **************** ****************

VERSE 2:
E|---------------------------------------------------------------------------|
B|---------------------------------------------------------------------------|
G|---------------------------------------------------------------------------|
D|-------6--------------------6----------------------------------------------|
A|-2--6--4--2--7--7--4--2--6--4--2--7--9--2-2-2-2-2-2-2-2--------------------|
E|-0--4-----0--5--4--2--0--4-----0--5--7--0-0-0-0-0-0-0-0--------------------|
                                          * * * * * * * *

small solo in 2nd verse:
e|--------------------------------------|
b|--------------------------------------|
g|-9---9---8----8---6----6----8----8----|
d|---9---9----9---9----9---9----9-----9-|
a|--------------------------------------|
e|--------------------------------------|

CHORUS:
e|--------------------------------------------------------|
b|--------------------------------------------------------|
g|-------------------6------4-----------------------------|
d|-----7-----2----6-------4--------7------2------6------9-|
a|---7-----2----4-------2--------7------2------6------9---|
e|-5-----0---------------------5------0------4------7-----|

CHORUS PART2: strum each chord 8x
e|----------------------------------|
b|----------------------------------|
g|----------------------------------|
d|---------6----4-------------------|
a|-7---2---4----2---7----2---6----9-|
e|-5---0------------5----0---4----7-|

INTERLUDE:
E|-------|--------|-------|-------|
B|-------|--------|-------|-------|
G|-------|--------|-------|-------|
D|-6-6-6-|-6-6-6--|-------|-------|
A|-4-4-4-|-4-4-4--|-7-7-7-|-6-6-6-|
E|-------|--------|-5-5-5-|-4-4-4-|
   * * *   * * *    * * *   * * * 

GTR2
E|------------|
B|-5----------|
G|---6-----6--|
A|------6-----|
D|------------|
E|------------|
   * *  *  *

INTERLUDE PART 2:
E|---------------------------------------------------------------------|
B|---------------------------------------------------------------------|
G|---------------------------------------------------------------------|
D|---------------------------------------------------------------------|
A|-2222222222222222-6666666666666666-7777777777777777-9999999999999999-|
E|-0000000000000000-4444444444444444-5555555555555555-7777777777777777-|
   **************** **************** **************** ****************

INTERLUDE PART3: 
e|-------------------------------------------------------------|
B|-17-17-17-17-19-19-19-19-17-17-17-17-17-17-17-17-17-17-17-17-|
G|-16-16-16-16-17-17-17-17-18-18-18-18-19-19-19-19-18-18-18-18-|
D|-------------------------------------------------------------|
A|-------------------------------------------------------------|
E|-------------------------------------------------------------|
 
e|-------------------------------------|
B|-18-18-18-18-19-19-19-19-16-16-16-16-|
G|-18-18-18-18-18-18-18-18-16-16-16-16-|
D|-------------------------------------|
A|-------------------------------------|
E|-------------------------------------|
 
INTERLUDER PART4:
e|-------------------------------------------------------------|
B|-17-17-17-17-19-19-19-19-17-17-17-17-17-17-17-17-17-17-17-17-|
G|-16-16-16-16-17-17-17-17-18-18-18-18-19-19-19-19-18-18-18-18-|
D|-------------------------------------------------------------|
A|-------------------------------------------------------------|
E|-------------------------------------------------------------|

e|------------------------22b24\-|
B|-19-19-19-19-------------------|
G|-18-18-18-18--21--20-21--------|
D|-------------------------------|
A|-------------------------------|
E|-------------------------------|

OUtro part 1: start when guitar 1 starta interlude part 4 ( strum 4x each, 8 for last chord )
e|--------------------------------|
b|--------------------------------|
g|---13---8---9---4---6---8---9---|
d|--------------------------------|
a|---11---6---7---2---4---6---7---|
e|--------------------------------|

OUTRO part 2:
E|---------------------------------------------------------------------------|
B|---------------------------------------------------------------------------|
G|---------------------------------------------------------------------------|
D|-------6--------------------6----------------------------------------------|
A|-2--6--4--2--7--7--4--2--6--4--2--7--9--2----------------------------------|
E|-0--4-----0--5--4--2--0--4-----0--5--7--0----------------------------------|


I'm 99.8% sure this is correct
            
Submit corrections

comments powered by Disqus
↑ Back to top | Lagwagon Tabs for Falling Apart. Lyrics for acoustic guitar and electric guitar. Tablatures and chords are parodies/interpretations of the original songs. You may use it for private study, scholarship, research or language learning purposes only