>
 >
Coffee & Cigarettes

Coffee & Cigarettes Bass Tabs

Lagwagon - Coffee & Cigarettes chords, tabs, tablatures, lyrics

Guitar lessons | Add/correct | Request | Top 50 tabs Artists:  A B C D E F G H I J K L M N O P Q R S T U V W X Y Z 0-9

Coffee & Cigarettes Bass Tabs – Lagwagon

CD, Sheet music, Poster

Do you like Coffee & Cigarettes? Share with your friends now
Bass Tabs
                                                                    Please Rate.
Right Hand: Fingers.

Intro.1
G|----2----------------------------------------|
D|-4----4-2------------------------------------|
A|-----------4-3-2-0-2-------------------------|
E|----------------------0-2--2~----------------|

(Pickslide Gtr.2)
Intro.2
G|--------------------------------2------------|
D|---------------------2---2h3-4----4-2--------|
A|--------0---0h2h3-4---4---------------432----|
E|---222----2--------------------------------0-|

G|---------------------------------------------|
D|---------------------------------------------|
A|------0---01h2-4444--------------------------|
E|--222---2------------------------------------|

G|--------------------------------2------------|
D|---------------------2---2h3-4----4-2--------|
A|--------0---0h2h3-4---4---------------432----|
E|---222----2--------------------------------0-|

G|-------------------------------------------|
D|-------------------------------------------|
A|------0---0-2~--2~--2~---------------------|
E|--222---2-----0---0---0--------------------|

Verse.
G|-------------------------------------------|
D|-------------------------------------------|
A|---------55------2222----------------------|      X4
E|-----22------55----------------------------|

Chorus.    always a question of truth.....
G|------------------------------------------------------|
D|------------------------------------------------------|
A|----5555-4444--2222-4444-5555--4444-2222--4444--------|
E|------------------------------------------------------|

Intro.2
VerseX4
Chorus

Bridge.
G|--------------------------------------------|
D|-----------------2--------------------------|
A|------00---2-3h4---4p32-0-------------------|
E|---22----2-----------------0----------------|

G|-------------------------------------------|
D|-------------------------------------------|
A|-------00-------0--------------------------|
E|---22-----0~--2----------------------------|

G|--------------------------------------------|
D|----------------------2----2-4-2------------|
A|------00-------2h3h4----4-------------------|
E|---22----0-22-------------------------------|

G|--------------------------------------------|
D|--------------------------------------------|
A|--------00----44-55-------------------------|
E|----22-----0--------------------------------|

G|--------------------------------------------|
D|-----------------2--------------------------|
A|------00---2-3h4---4p32-0-------------------|
E|---22----2-----------------0----------------|

G|-------------------------------------------|
D|-------------------------------------------|
A|------00--------0--------------------------|
E|--22------0~-2-----------------------------|

G|-----------------------9----9-11-11---------|
D|--------------9h10h11---11------------------|
A|-----00-------------------------------------|
E|--22------2---------------------------------|
Note: these are 10's and 11's

G|-------------------------------------------|
D|-------------------------------------------|
A|------00--------44-55----------------------|
E|---22----0---------------------------------|

During Guitar Solo
G|-------------------------------------------|
D|-------------------------------------------|
A|-----------55--------22--------------------|        X4
E|---22------------55------------------------|

Pre-Outro
G|---------------------------------------------|
D|---------------------------------------------|
A|------5555-4444-2222-4444-5555-4444-2222-----|
E|---------------------------------------------|
                                                                                                X2
G|---------------------------------------------|
D|---------------------------------------------|
A|--4444-5555----------------------------------|
E|---------------------------------------------|

Outro
G|--------------------------------2------------|
D|---------------------2---2h3-4----4-2--------|
A|--------0---0h2h3-4---4---------------432----|
E|---222----2--------------------------------0-|

G|---------------------------------------------|
D|---------------------------------------------|
A|------0---01h2-4444--------------------------|
E|--222---2------------------------------------|

G|--------------------------------2------------|
D|---------------------2---2h3-4----4-2--------|
A|--------0---0h2h3-4---4---------------432----|
E|---222----2--------------------------------0-|

G|-------------------------------------------|
D|-------------------------------------------|
A|------0---0-2~--2~--2~---------------------|
E|--222---2-----0---0---0--------------------|

End On
G|-------------------------------------------|
D|-------------------------------------------|
A|-------------------------------------------|
E|---2-2-------------------------------------|

Thanks for using this tab, this is my first tab that i have made.
Please Rate.
Cheers, Jimmy.





Comments


Popular Lagwagon tabs & chords
Black Eyes 1 Bass Tabs
Name Dropping 3 Bass Tabs
Violins 2 Bass Tabs
Runs In The Family Chords
Bad Scene 1 Tabs
Brown Eyed Girl Intro Tabs
No One Tabs
Status Pools 1 Tabs
A Feedbag Of Truckstop Poetry Ukulele
Resolve Ukulele


Song lyrics



↑ Back to top | Tablatures and chords are parodies/interpretations of the original songs. You may use it for private study, scholarship, research or language learning purposes only
© 2014 AZChords.com Contact us | Privacy policy | DMCA | Add/correct tabs | Request tabs | Top 50 tabs