» » »

Lagwagon, Bad Moon Rising Bass tabs (ver.1)

Artists:  A B C D E F G H I J K L M N O P Q R S T U V W X Y Z # 

Bad Moon Rising Bass tabs (ver.1)

Lagwagon Tabs
Rating:
0/5 (0 votes)
Bad Moon Rising lessons Tabs too difficult? Try these video lessons and learn fast
                This is a very very very cool song a i hope i did it right, but if i didn't oh well.


  intro
G]-----------------------------------------|
D]-----------------------------------------|
A]4-4-44-4-4-44-4-4-44-------4-4-44-4-4-44-|
E]--------------------4-4-2-2--------------|

G]-------------------------------------------|
D]-------------------------------------------|
A]-4-4-44-------4-4-44-4-4-44-4-4-44--4-4-44-|
E]-------4-4-2-2--------------------44-------|


  chorus
G]------------------------------------------|
D]------------------------------------------|
A]----------4444444444-----------4444444444-|
E]2222222222----------44444-22222-----------|

  verse x2
G]------------------------------------------------------|
D]------------------------------------------------------|
A]4-4-44-------4-4-44-4-4-44-4-4-44-------4-4-44-4-4-44-|
E]------4-4-2-2--------------------4-4-2-2--------------|

  chorus x1


  solo
G]-------------------------------------------------|
D]-------------------------------------------------|
A]4-4-44-------4-4-44-4-4-44-4-4-44-------4-4-44-4-|
E]------4-4-2-2--------------------4-4-2-2---------|

G]---------------------------------------------------|
D]---------------------------------------------------|
A]----------------4-4444-4-4444-------------4-4444-4-|
E]-012-2222-2-2222-------------4-4444-2-2222---------|

  verse x2

  chorus x2
            

comments powered by Disqus
↑ Back to top | Lagwagon Bass for Bad Moon Rising. Lyrics for acoustic guitar and electric guitar. Tablatures and chords are parodies/interpretations of the original songs. You may use it for private study, scholarship, research or language learning purposes only