>
 >
After You My Friend

After You My Friend Bass Tabs

Lagwagon - After You My Friend chords, tabs, tablatures, lyrics

Guitar lessons | Add/correct | Request | Top 50 tabs Artists:  A B C D E F G H I J K L M N O P Q R S T U V W X Y Z 0-9

After You My Friend Bass Tabs – Lagwagon

CD, Sheet music, Poster

Do you like After You My Friend? Share with your friends now
Bass TabsChordsTabsTabs v2


By Oly 

* = play 8 times

Intro
G:---------------------------------------------------------------
D:---------------------------------------------------------------
A:-2222-2-2222-2-2222-2-2222-------------------------------------
E:---------------------------------------------------------------

Verse
  Here he is he saves a grin he wants to be the one who
G:---------------------------------------------------------------
D:---------------------------2*----------------------------------
A:-2*------------------------------------2*----------------------
E:--------2*-----4*------2*--------------------------------------

  doesn't have to sink a level
G:---------------------------------------------------------------
D:---------------------------------------------------------------
A:-4*------------------------------------------------------------
E:-----------------2*--------------------------------------------

  Indescrete in his retreat all he needs is just a taste of the
G:---------------------------------------------------------------
D:---------------------------------------------------------------
A:-2*----1*-----------------------------------------2*-----------
E:----------4*---------2*-----------0*---------------------------

  bitter pride he held in her name
G:---------------------------------------------------------------
D:---------------------------------------------------------------
A:-4*------------------------------------------------------------
E:-----------------2*--------------------------------------------

  Embrace the solitude in ordinary fucked up state of grace
G:---------------------------------------------------------------
D:----------------------------------------------------2*---------
A:-2*---------1*-------------------------------------------------
E:------------------------4*--------2*---------------------------

  far away from the days he bared the cross she used
G:---------------------------------------------------------------
D:---------------------------------------------------------------
A:----2*-------------4*------------------------------------------
E:-------------------------------------2*------------------------

  to wea  -ar
G:---------------------------------------------------------------
D:---------------------------------------------------------------
A:---------------------------------------------------------------
E:---00000-22222-------------------------------------------------

      In some resolve well aware a little pitiful a pin-up boy
G:---------------------------------------------------------------
D:---------------------------------------------------------------
A:--------00000---------------2*---------------------------------
E:44444------------------------------------2*--------4*----------

  they dress in grieving wear
G:---------------------------------------------------------------
D:------1*-------------------------------------------------------
A:---------------------------------------------------------------
E:------------------------44-0-----------------------------------

        Well at ease in consent in the drift of undertow
G:---------------------------------------------------------------
D:11111----------------------------------------------------------
A:------00000---------------2*------------------------2*-1*------
E:--------------------------------------2*------------------4*-2*

  He won't justify the pity from them when he knows
G:---------------------------------------------------------------
D:2*-------------------------------------------------------------
A:----------2*----------4*---------------------------------------
E:-----------------------------------2*--------------------------

  Fools in love are arrogant their sermons cloud his breathing
G:---------------------------------------------------------------
D:---------------------------------------------------------------
A:-2*-------1*----------4*---------------------------------------
E:-------------------------------------------2*------------------

  air he's in love with an isolation from emotion
G:---------------------------------------------------------------
D:-2*------------------------------------------------------------
A:-------------2*----------4*------------------------------------
E:------------------------------------2--------------------------

Jazzy Part
G:---------------------------------------------------------------
D:---6---6----2---2---2----4---4----4---4---4--------------------
A:-4---4----------------42---2---23---3---3----------------------
E:---------32---2---2--------------------------------------------

G:---------------------------------------------------------------
D:---6---6----2---2---2----4---4----4----4-----------------------
A:-4---4----------------42---2---23---33---346-------------------
E:---------32---2---2--------------------------------------------

G:---------------------------------------------------------------
D:---6421----2---2---2----4---4----4---4---4---------------------
A:-4-------------------42---2---23---3---3-----------------------
E:--------32---2---2---------------------------------------------

G:---------------------------------------------------------------
D:---6421----2---2---2-------------------------------------------
A:-4-------------------------------------------------------------
E:--------32---2---2---------------------------------------------

Guitar intro thing
Verse
  Here he is awaiting sentence a fool to think anyone can escape
G:---------------------------------------------------------------
D:---------------------------------------------------------------
A:-2*--------------------------------------2*----------4*--------
E:--------2*---4*--------2*---0*---------------------------------

  the guilt and anguish
G:---------------------------------------------------------------
D:---------------------------------------------------------------
A:---------------------------------------------------------------
E:-----2*--------------------------------------------------------

  A subtlety that can't be learned a subtlety that can't be
G:---------------------------------------------------------------
D:---------------------------------------------------------------
A:2*-----1*------------------------------------------------------
E:--------------------------4*-------------2*--------------------

  taught he is caught in the lure of second thoughts he might
G:---------------------------------------------------------------
D:-2*------------------------------------------------------------
A:--------------2*------------4*---------------------------------
E:--------------------------------------------2*-----------------

  still ca    -are
G:---------------------------------------------------------------
D:---------------------------------------------------------------
A:---------------------------------------------------------------
E:-------00000-22222---------------------------------------------

    As he settles down well aware bound in secrecy his voice will
G:---------------------------------------------------------------
D:---------------------------------------------------------------
A:---------00000--------------2*---------------------------------
E:44444--------------------------------------2*----------4*------

  only dignify their
G:-----1*--------------------------------------------------------
D:---------------------------------------------------------------
A:---------------------------------------------------------------
E:------------------44-0-----------------------------------------

      But sorrow is dignified he's well aware of his
G:---------------------------------------------------------------
D:-11111---------------------------------------------------------
A:---------00000----------2*-------------0-----------------------
E:---------------------------------------------------------------

Instrumental Ending Part
  pride
G:---------------------------------------------------------------
D:---------11----------22-------22-11----22----2-2---------------
A:-2-22-00----44-33-------------------44-------------------------
E:------------------00-----0-22-------------00-------------------


G:---------------------------------------------------------------
D:---------11----------22----------11----------------------------
A:-2-22-00----44-33--------2-22-00----44-33----------------------
E:------------------00-----------------------2222--0-------------





Comments


Popular Lagwagon tabs & chords
Billionaire Bass Tabs
Billionaire 1 Bass Tabs
No One Like You Bass Tabs
Sick Bass Tabs
Sleep 3 Bass Tabs
Bury The Hatchet (Intro) Tabs
Change Despair Tabs
Choke 1 Tabs
Kids Don't Like To Share Tabs
Of Mind And Matters Tabs


Song lyrics



↑ Back to top | Tablatures and chords are parodies/interpretations of the original songs. You may use it for private study, scholarship, research or language learning purposes only
© 2014 AZChords.com Contact us | Privacy policy | DMCA | Add/correct tabs | Request tabs | Top 50 tabs