>
 >
King Park 1

King Park 1 Guitar Tabs

La Dispute - King Park 1 chords, tabs, tablatures, lyrics

Guitar lessons | Add/correct | Request | Top 50 tabs Artists:  A B C D E F G H I J K L M N O P Q R S T U V W X Y Z 0-9

King Park 1 Guitar Tabs – La Dispute

CD, Sheet music, Poster

Do you like King Park 1? Share with your friends now
Bass TabsTabsTabs v2

0:00
e|----------------------------------------------------------------|
B|-55555555----------5555-3333------------------------------------|
G|-66666666-66666666-6666-4444-22222222---------------------------|
D|-66666666-77777777-6666-4444-44444444--[x4]---------------------|
A|-44444444-77777777-4444-2222-44444444---------------------------|
E|----------55555555-----------22222222---------------------------|

0:28
e|-44-44-44-----------------------------------------------------|
B|-55555555-----------------------------------------------------|
G|-66666666-66/99\66-14141414-1313-1414-11111111111111\---------|
D|-66666666-xx-xx-xx-x-x-x-x--x-x--x-x--x-x-x-x-x-x-x----4~-----|
A|----------44/77\44-12121212-1111-1212-9-9-9-9-9-9-9-\--4~-----|
E|-------------------------------------------------------2~-----|

0:42
e|---------------------------------------------------------------|
B|---------------------------------------------------------------|
G|-2~----6--0---2~-----------------------------------------------|
D|-4~----7--2---4~-----------------------------------------------|
A|-4~----7--2---4~-----------------------------------------------|
E|-2~----5--0---2~-----------------------------------------------|

0:54
e|-------------------------|-----------------------------|
B|-------------------------|-----------------------------|
G|-------------------------|-----------------------------|
D|------4-4---0-0---2-2~---|------4-4---0-0---2-2--------|
A|-0~---5-5---2-2---4-4~---|-0~---5-5---2-2---4-4---4-4~-|
E|-2~----------------------|-2~---------------------5-5~-|

1:05
e|----------------------------------------12-7--------------------|
B|---------10----------------------------x-----12-10-12-12--------|
G|-9-11~------11-9----9----------9-11~--x-------------------------|
D|-----------------11---11------------------------------[x2]------|
A|----------------------------------------------------------------|
E|----------------------------------------------------------------|

1:32
e|---------------------------------------------------------------|
B|---------------------------------------------------------------|
G|-6~-6~---------------------------------------------------------|
D|-7~-7~--4-4-4--------------------------------------------------|
A|-4~-4~--4-4-4----5--4--2~--------------------------------------|
E|-5~-5~--2-2-2----7--5--4~--------------------------------------|

1:45
e|---------------------------------------------------------------|
B|---------------------------------------------------------------|
G|--------------------------2------------------------------------|
D|--------2---------------2---2------------[x2]------------------|
A|----4-----4--4h5p4----0-------0--4\2-0-------------------------|
E|-2-------------------------------------------------------------|

e|---------------------------------------------------------------|
B|---------------------------------------------------------------|
G|--------------------------2------------------------------------|
D|--------2---------------2---2------2-2/4-2---[x6]--------------|
A|----4-----4--4h5p4----0-------0--4-----------------------------|
E|-2-------------------------------------------------------------|

2:33
e|-------------------------------------------------------------------|
B|-------------------------------------------------------------------|
G|-------------------------------------------------------------------|
D|-6-6-6-6-6-6--6-6----6-6-6-6-6-6--6-6--[x4]---4~--2~---------------|
A|-4-4-4-4-4-4--4-4----4-4-4-4-4-4--2-2---------4~--2~---------------|
E|-2-2-2-2-2-2--5-5----2-2-2-2-2-2--0-0---------2~--0~---------------|

2:58
e|---------------------------------------------------------------|
B|---------------------------------------------------------------|
G|-6-6-6-6-6-6-6-6-6-6-6-6-6-6-6-6-6-6-6-6-6-6-6-6-6-6-6-6~------|
D|-x-x-x-x-x-x-x-x-x-x-x-x-x-x-x-x-x-x-x-x-x-x-x-x-x-x-x-x-------|
A|-4-4-4-4-4-4-4-4-4-4-4-4-4-4-4-4-4-4-4-4-4-4-4-4-4-4-4-4~------|
E|---------------------------------------------------------------|

3:26
e|-------------------------------------------------------------------|
B|-------------------------------------------------------------------|
G|------7---7-7-6---6-4-4--------------------------------------------|
D|-------------------------4-4h5-------------------------------------|
A|---4--5---5-5-5---5-2-2--------5--5-5-5-5--5-5-4---4-2-----4-4h5---|
E|---5--7---7-7-7---7-3-3-----------3-3-0-2--2-2-2---2-0---0---------|

5:14
e|---------------------------------------------------------------|
B|-0-0-0-0-0-0-0-0-0-0-0-0-0-0-0-0-0-0-0-0-0-0-0-0-0-0-0-0-0-0-0-|
G|-4-4-4-4-4-4-4-4-4-4-4-4-4-4-4-4-4-4-4-4-4-4-4-4-4-4-4-4-4-4-4-|
D|---------------------------------------------------------------|
A|---------------------------------------------------------------|
E|---------------------------------------------------------------|

e|---------------------------------------------------------------|
B|-0-0-0-0-0-0-0-0-0-0-0-0-0-0-0-0-0-0-0-0-0-0-0-0-0-0-0-0-0-0-0-|
G|-4-4-4-4-4-4-4-4-5-5-5-5-4-4-4-4-4-4-4-4-4-4-4-4-4-4-1111111111|
D|---------------------------------------------------------------|
A|---------------------------------------------------------------|
E|---------------------------------------------------------------|

5:23
e|-------------------------------------------------------------|
B|-------------------------------------------------------------|
G|--------------------4---4--4---------------------------------|
D|------------------------4--5---[x8]--------------------------|
A|-2---3---3-------2--2---5--2---------------------------------|
E|-0---0---5-------0--3---7--3---------------------------------|

6:22
e|----------------------|-------------------------------|
B|----------------------|-------------------------------|
G|----------------4--4--|---------------4--4~---5555444-|
D|----------------5--4--|---------------5--4~-----------|
A|-2--3--3-----2--2--5--|-2--3--3----2--2--5~---3333222-|
E|-0--0--5-----0--3--7--|-0--0--5----0--3--7~---5555333-|





Comments


Popular La Dispute tabs & chords
Edward Benz 27 Times Bass Tabs
Why It Scares Me Bass Tabs
A Departure Tabs
A Letter Intro Tabs
Last Blues For Bloody Knuckles Intro Tabs
See You In Vancouver Tabs
Sunday Morning At A Funeral Tabs
Ten Tabs
Then Again, Maybe You Were Right Tabs
Such Small Hands Ukulele


Song lyrics



↑ Back to top | Tablatures and chords are parodies/interpretations of the original songs. You may use it for private study, scholarship, research or language learning purposes only
© 2014 AZChords.com Contact us | Privacy policy | DMCA | Add/correct tabs | Request tabs | Top 50 tabs