» » »

La Dispute, King Park Bass tabs (ver.1)

Artists:  A B C D E F G H I J K L M N O P Q R S T U V W X Y Z # 

King Park Bass tabs (ver.1)

La Dispute Tabs
Rating:
5/5 (2 votes)
King Park lessons Tabs too difficult? Try these video lessons and learn fast
                Track: King Park
Tuning: EADG (Standard)

Please figure out the timing on your own and enjoy!

INTRO
G---------------------------------------------------------------------------------|
D---------------------------------------00000-222---------------------------------| X3
A--4444444444444444--0000000000000000-------------2222-4h5-4-0--------------------|
E--------------------------------------------------------------2222222022222222---|

0:41
G----------------------------------------------------------------------------------|
D----------------------------------------------------------------------------------|
A-------0~~~--2~~~~----------------------------------------------------------------|
E--2~~~-------------2-2-2-2-02-2-2-2-52-2-2-2-02-2-2-2-----------------------------|

0:51
G---------------------------------------------------------------------------------|
D---------------------------------------------------------------------------------|
A------------55---44------------55---44-------------------------------------------| x3
E--022------------------022--------------5-5-022----------------------------------|

1:31
G---------------------------------------------------------------------------------|
D---------------------------------------------------------------------------------|
A-----------------------------2~~~~~~--0~~~~~-------------------------------------|
E--5~~~~~-5~~~~~~--2-2-2~~~~------------------4~~~~~~---2~~~~~~~~~~~~~~~~~--------|

1:57
G---------------------------------------------------------------------------------|
D---------------------------------------------------------------------------------| x6
A-----------4-4h5p4--0~~~~~~-4-----4-2-0------------------------------------------|
E--2~~~~~~---------------------0--------------------------------------------------|

2:32
G---------------------------------------------------------------------------------|
D----------2-2--------------------------------------------------------------------| x4
A------4-4-----4h5p4-0-0-0-4---4-2-0----------------------------------------------|
E--2-2-----------------------0----------------------------------------------------|

2:56
G---------------------------------------------------------------------------------|
D---------------------------------------------------------------------------------| x2
A---------------------------------------------------------------------------------|
E--2-2-2-2-2-2-2-2-2-2-2-2-5-5-5-0-2-2-2-2-2-2-2-2-2-2-2-2-0-0-0-0----------------|

3:20
G---------------------------------------------------------------------------------|
D---------------------------------------------------------------------------------|
A----------------------0~~~~~--2~~~~~~~~~~----------------------------------------|
E--2~~~~~~~~--0~~~~~~~------------------------------------------------------------|

4:37
G---------------------------------------------------------------------------------|
D---------------------------------------------------------------------------------| x2
A--2~~~~~~~~-----------------------------------0~~~~~~~~--------------------------|
E-------------3~~~~~~~~--2~~~~~~~~~--0~~~~~~~~------------------------------------|

5:12
G---------------------------------------------------------------------------------|
D---------------------------------------------------------------------------------|
A--2~~~~~~~~~~~~~~~~~~~~~~~~~~~~~~~~~~~~~~~~~~~~~~~~~~~~~~------------------------|
E---------------------------------------------------------------------------------|

5:20 Note: Don't play the last note on the 4th repetition
G---------------------------------------------------------------------------------|
D---------------------------------------------------------------------------------| x4
A-------------3~~~~~~~~---0~~~~~~~~--------------------3~~~~~~~~--2~~~~~~~--------|
E---0~~~~~~~------------------------0~~~~~~~--3~~~~~~~----------------------------|

6:19 Note: Make sure these notes are nice and punchy
G----------------------------------------------------------------------------------|
D----------------------------------------------------------------------------------|
A---------3-----0-------------3~~~~~~~~~~~-----------------------------------------|
E---0----------------0----3--------------------------------------------------------|

6:34
G----------------------------------------------------------------------------------|
D----------------------------------------------------------------------------------|
A---------3-----0-------------3~~~~3333-222----------------------------------------|
E---0----------------0----3--------------------------------------------------------|
            
Submit corrections

comments powered by Disqus
↑ Back to top | La Dispute Bass for King Park. Lyrics for acoustic guitar and electric guitar. Tablatures and chords are parodies/interpretations of the original songs. You may use it for private study, scholarship, research or language learning purposes only