» » »

La Dispute, King Park Tabs (ver.1)

Artists:  A B C D E F G H I J K L M N O P Q R S T U V W X Y Z # 

King Park Tabs (ver.1)

La Dispute Tabs
 Rating:
4/5 (8 votes)
King Park lessons Tabs too difficult? Try these video lessons and learn fast
1
                -------------------------------------------------------------------------------
-------------------------------------------------------------------------------

This is probably my favorite La Dispute song, so I decided to tab it.
I might have missed a few notes in some areas but I'll go back and tidy
it up later. Comment or Rate to let me know what you think

Tuning: Standard

Guitar 1:

e|---------------------------------------------------------------------------|
B|---------------------------------------------------------------------------|
G|--9--9--9--9--9--9--9--9--9--9--9--9--9--9--9--9--6--6--6--6--6--6--6--6---|
D|--x--x--x--x--x--x--x--x--x--x--x--x--x--x--x--x--x--x--x--x--x--x--x--x---|
A|--7--7--7--7--7--7--7--7--7--7--7--7--7--7--7--7--4--4--4--4--4--4--4--4---|
E|---------------------------------------------------------------------------|

e|---------------------------------------------------------------------------|
B|---------------------------------------------------------------------------|
G|--6--6--6--6--6--6--6--6--7--7--7--7--7--7--7--7--4--4--4--4--4--4--4--4---|
D|--x--x--x--x--x--x--x--x--x--x--x--x--x--x--x--x--x--x--x--x--x--x--x--x---|
A|--4--4--4--4--4--4--4--4--5--5--5--5--5--5--5--5--2--2--2--2--2--2--2--2---|
E|---------------------------------------------------------------------------|

e|---------------------------------------------------------------------------|
B|---------------------------------------------------------------------------|
G|--2--2--2--2--2--2--2--2--2--2--2--2--2--2--2--2---------------------------|
D|--x--x--x--x--x--x--x--x--x--x--x--x--x--x--x--x---------------------------|
A|--0--0--0--0--0--0--0--0--0--0--0--0--0--0--0--0---------------------------|
E|---------------------------------------------------------------------------|


Guitar 2: @ :27

e|---------------------------------------------------------------------------|
B|---------------------------------------------------------------------------|
G|--6-6-6-6-6-6-6-6-6-6-6-6-6-6-6-6---9-9-9-9-9-9-9-9-9-9-9-9-9-9-9-9--------|
D|--x-x-x-x-x-x-x-x-x-x-x-x-x-x-x-x---x-x-x-x-x-x-x-x-x-x-x-x-x-x-x-x--------|
A|--4-4-4-4-4-4-4-4-4-4-4-4-4-4-4-4---7-7-7-7-7-7-7-7-7-7-7-7-7-7-7-7--------|
E|---------------------------------------------------------------------------|

e|---------------------------------------------------------------------------|
B|---------------------------------------------------------------------------|
G|-14-14-14-14-14-14-14-14-13-13-13-13-14-14-14-14-11-11-11-11-11-11-11-11---|
D|--x--x--x--x--x--x--x--x--x--x--x--x--x--x--x--x--x--x--x--x--x--x--x--x---|
A|-12-12-12-12-12-12-12-12-11-11-11-11-12-12-12-12--9--9--9--9--9--9--9--9---|
E|---------------------------------------------------------------------------|

e|---------------------------------------------------------------------------|
B|---------------------------------------------------------------------------|
G|-11-11-11-11-11-11-11-11---------------------------------------------------|
D|--x--x--x--x--x--x--x--x---------------------------------------------------|
A|--9--9--9--9--9--9--9--9---------------------------------------------------|
E|---------------------------------------------------------------------------|

Guitar 1 @ :41

e|------------------  -------------------------------------------------------|
B|------------------ --------------------------------------------------------|
G|------------------ --------------------------------------------------------|
D|------------------ {----4--4---0--0---2--2-------4--4---0--0---2--2------}-|
A|--4----7--9---4--- {0---5--5---2--2---4--4---0---5--5---2--2---4--4--0--0}-|
E|--2----5--7---2--- {2------------------------2-----------------------5--5}-|           
                             {x3}

G2 @ 1:04

e|-------------------------12------------------------------------------------|
B|--7---10--------------------14-12-10h12------------------------------------|
G|--------11-9-6h9-6----11---------------------------------------------------|
D|---------------------------------------------------------------------------|
A|---------------------------------------------------------------------------|
E|---------------------------------------------------------------------------|


G1 @ 1:44
e|---------------------------------------------------------------------------|
B|---------------------------------------------------------------------------|
G|---------------------------------------------------------------------------|
D|--------2-------------7----------------------------------------------------|
A|-----4-----4h5p4----4-----4\2----------------------------------------------|
E|--2-------2-------5--------------------------------------------------------|

@ 2:33

e|----------------------------------------------------|
B|----------------------------------------------------|
G|----------------------------------------------------|
D|----------------------------------------------------|
A|--4--4--4--4--4--4--4--4--4--4--4--4--4--4--4--4----|
E|--2--2--2--2--2--2--2--2--2--2--2--2--2--2--2--2----|

@ 2:56

e|----------------------------------------------------|
B|----------------------------------------------------|
G|----------------------------------------------------|
D|-4--4--4--4--4--4--4--4--4--4--4--4--4--4--4--4-----|
A|-4--4--4--4--4--4--4--4--4--4--4--4--4--4--4--4-----|
E|-2--2--2--2--2--2--2--2--2--2--2--2--2--2--2--2-----|



G2 @ 2:56

e|----------------------------------------------------|
B|----------------------------------------------------|
G|-6--6--6--6--6--6--6--6--6--6--6--6--6--6--6--6-----|
D|-x--x--x--x--x--x--x--x--x--x--x--x--x--x--x--x-----|
A|-4--4--4--4--4--4--4--4--4--4--4--4--4--4--4--4-----|
E|----------------------------------------------------|

@ 3:25

e|---------------------------------------------------------------------------|
B|---------------------------------------------------------------------------|
G|--7-------7--6---6--4------------------------------------------------------|
D|--x---x---x--x---x--x---4-4-4h5-0------------------------------------------|
A|--5---5---5--5---5--5-----------------5----5---5--4---4\--2---4--4h5p4-----|
E|--------------------------------------2----2---2--2---2---0----------------|

@ 5:13

e|---------------------------------------|
B|---------------------------------------|
G|--4-4-4-4-4-4-4-4-4-4-4-4-4-4-4-4------|
D|--x-x-x-x-x-x-x-x-x-x-x-x-x-x-x-x------|
A|--7-7-7-7-7-7-7-7-7-7-7-7-7-7-7-7------|
E|---------------------------------------|


@ 5:20
e|-------------------|
B|-------------------|
G|-------------------|
D|-------------------|
A|--2----5----7------|
E|--0----3----5------|
            
Submit corrections

comments powered by Disqus
↑ Back to top | La Dispute Tabs for King Park. Lyrics for acoustic guitar and electric guitar. 1 Tablatures and chords are parodies/interpretations of the original songs. You may use it for private study, scholarship, research or language learning purposes only