» » »

Lacuna Coil, Falling Again Tabs (ver.2)

Artists:  A B C D E F G H I J K L M N O P Q R S T U V W X Y Z # 

Falling Again Tabs (ver.2)

Lacuna Coil Tabs
Rating:
0/5 (0 votes)
Falling Again lessons Tabs too difficult? Try these video lessons and learn fast
                Tuning: E A D G B E

INTRO:
|------------------------------------------------------------------|
|------------------------------------------------------------------|
|-------4----------------4----------------4----------------4-------|
|------------------------------------------------------------------|
|0--------------0----------------0---------------0-----------------|
|------------------------------------------------------------------|

|------------------------------------------------------------------|
|------------------------------------------------------------------|
|-------5----------------5----------------5----------------5-------|
|------------------------------------------------------------------|
|0--------------0----------------0---------------0-----------------|
|------------------------------------------------------------------|

|------------------------------------------------------------------|
|------------------------------------------------------------------|
|------------------------------------------------------------------|
|-------4----------------4----------------4---------------4--------|
|3--------------3----------------3---------------3-----------------|
|------------------------------------------------------------------|

|------------------------------------------------------------------|
|------------------------------------------------------------------|
|------------------------------------------------------------------|
|-------2----------------2----------------2----------------2-------|
|3--------------3----------------3---------------3-----------------|
|------------------------------------------------------------------|

PART 1:
|------------------------------------------------------------------|
|10/-13--10-----------10--13--10------------10--9---10--10---------|
|-----------------9---------------9------9-------------------------|
|------------------------------------10----------------------------|
|------------------------------------------------------------------|
|------------------------------------------------------------------|

|----------------10-------------------------------------10/-13-----|
|10------7---10------10--7--------------7---10--9---7--------------|
|-------------------------------9----------------------------------|
|------------------------------------------------------------------|
|------------------------------------------------------------------|
|------------------------------------------------------------------|

|------------------------------------------------------------------|
|10----------10--13--10-----------------10--9---10--10-------------|
|--------9---------------9----------9-----------------------10-----|
|---------------------------10-------------------------------------|
|------------------------------------------------------------------|
|------------------------------------------------------------------|

|------------------------------------------------------------------|
|------------10-------------------------------------10-------------|
|----7---10------10--7--------------7---10--9---7------------------|
|---------------------------9--------------------------------------|
|------------------------------------------------------------------|
|------------------------------------------------------------------|

PART 2:
Gtr.1
|------------------------------------------------------------------|
|------------------------------------------------------------------|
|-------2----------------2----------------2----------------2-------|
|------------------------------------------------------------------|
|0--------------0----------------0---------------0-----------------|
|------------------------------------------------------------------|

|------------------------------------------------------------------|
|------------------------------------------------------------------|
|-------0----------------0----------------0----------------0-------|
|------------------------------------------------------------------|
|------------------------------------------------------------------|
|1-------------1----------------1---------------1------------------|

|------------------------------------------------------------------|
|------------------------------------------------------------------|
|-------4----------------4----------------4----------------4-------|
|------------------------------------------------------------------|
|------------------------------------------------------------------|
|0-------------0----------------0---------------0------------------|

|------------------------------------------------------------------|
|------------------------------------------------------------------|
|-------6----------------6----------------6----------------6-------|
|------------------------------------------------------------------|
|5--------------5----------------5---------------5-----------------|
|------------------------------------------------------------------|

Gtr 2.
|------------------------------------------------------------------|
|10----------10------8-----------8-------8-----------8-------6-----|
|--------9-------9-----------9-------9-----------9-------9---------|
|------------------------------------------------------------------|
|------------------------------------------------------------------|
|------------------------------------------------------------------|

Repeat this throughout Part 2
|------------------------------------------------------------------|
|---6---8----------------------------------------------------------|
|9-----------------------------------------------------------------|
|------------------------------------------------------------------|
|------------------------------------------------------------------|
|------------------------------------------------------------------|

PART 3:
|------------------------------------------------------------------|
|------------------------------------------------------------------|
|------------------------------------------------------------------|
|-------2----------------2----------------2----------------2-------|
|------------------------------------------------------------------|
|1-------------1----------------1---------------1------------------|

|------------------------------------------------------------------|
|------------------------------------------------------------------|
|------------------------------------------------------------------|
|-------2----------------2----------------2----------------2-------|
|0--------------0----------------0--------------0------------------|
|------------------------------------------------------------------|

When the song gets to "...I'm falling down" play this:
|------------------------------------------------------------------|
|------------------------------------------------------------------|
|-----------------------------------------0----------------0-------|
|-------2----------------2-----------------------------------------|
|------------------------------------------------------------------|
|1-------------1----------------3---------------3------------------|

CHORUS:
|------------------------------------------------------------------|
|------------------------------------------------------------------|
|------------------------------------------------------------------|
|----------------------------------2----------------5--------------|
|3----------------2----------------0----------------3--------------|
|1----------------0------------------------------------------------|

When the song gets to "...I'm falling down" play this:
|------------------------------------------------------------------|
|------------------------------------------------------------------|
|------------------------------------------------------------------|
|------------------------------------------------------------------|
|3----------------5------------------------------------------------|
|1----------------3------------------------------------------------|

SOLO:
|--------8----------7----------------------------------------------|
|0/--5--------------------------5---------6---5h6p5----------------|
|------------0/--7------0/--7-------5---------------5---4/--7------|
|------------------------------------------------------------------|
|------------------------------------------------------------------|
|------------------------------------------------------------------|

|--------8---------------------------------------------------------|
|5h--6-------5-------6---------------------------------------------|
|------------------------4-------4h--5---2-------4---5---7---------|
|------------------------------------------------------------------|
|------------------------------------------------------------------|
|------------------------------------------------------------------|

|--------8----------7----------------------------------------------|
|0/--5--------------------------5-----------6---5h6p5--------------|
|------------0/--7------0/--7-------5--------------------5---4-----|
|------------------------------------------------------------------|
|------------------------------------------------------------------|
|------------------------------------------------------------------|

|------------------------------------------------------------------|
|--------------------------------0/--6---5-------------------------|
|7-------4-------2-------1/--2---------------5---------------------|
|------------------------------------------------------------------|
|------------------------------------------------------------------|
|------------------------------------------------------------------|

Song ends with this chord played on the 5th fret:
    5
    5
    5
    7
    7
    5
            

comments powered by Disqus
↑ Back to top | Lacuna Coil Tabs for Falling Again. Lyrics for acoustic guitar and electric guitar. Tablatures and chords are parodies/interpretations of the original songs. You may use it for private study, scholarship, research or language learning purposes only