>
 >
Falling Again

Falling Again Guitar Tabs

Lacuna Coil - Falling Again chords, tabs, tablatures, lyrics

Guitar lessons | Add/correct | Request | Top 50 tabs Artists:  A B C D E F G H I J K L M N O P Q R S T U V W X Y Z 0-9

Falling Again Guitar Tabs – Lacuna Coil

CD, Sheet music, Poster

Do you like Falling Again? Share with your friends now
Bass TabsTabsTabs v2Tabs v3
this is sort of my first tab, i expanded on what i had come up with for this song.
there is some background guitar stuff in the chorus. figure it out on your own if
you want to play it. i might do it later.

subject line FALLING TAB.

FALLING - LACUNA COIL

Guitar 1: Intro
 Play this 4X
  e|------------------------------------|
  b|------------------------------------|
  g|---4---4---4---4---5---5---5---5----|
  d|------------------------------------|
  a|-0---0---0---0---0---0---0---0------|
  E|------------------------------------| 
                                          
  e|------------------------------------| 
  b|------------------------------------| 
  g|---4---4---4---4---2---2---2---2----|
  d|-3---3---3---3---3---3---3---3------|
  a|------------------------------------|
  E|------------------------------------| 

Guitar 2: Intro
 Rest while Guitar 1 plays its part twice, 
 then play this 2X
  e|------------------------------------| 
  b|---10/13---10----10---13---10-------| 
  g|--------------9---------------9---9-|
  d|--------------------------------10--|
  a|------------------------------------| 
  E|------------------------------------| 

  e|------------------------------------| 
  b|--10--9--10--10-----------10--------|
  g|----------------10--7--10----10--7--|
  d|------------------------------------|       
  a|------------------------------------| 
  E|------------------------------------| 

  e|------------------------------------| 
  b|------------------------------------| 
  g|----7----10----9----7---------------| 
  d|--9---------------------------------| 
  a|------------------------------------| 
  E|------------------------------------|

Guitar 1:
 Play this
  e|---------------------------------|
  b|---------------------------------|
  g|---2---2---2---2---0---0---0---0-|
  d|---------------------------------|
  a|-0---0---0---0-------------------|
  E|-----------------1---1---1---1---|
      "Stained..."
  e|---------------------------------|
  b|-------------------6---6---6---6-|
  g|---4---4---4---4-----------------|
  d|-----------------0---0---0---0---|
  a|---------------------------------|
  E|-0---0---0---0-------------------|

Guitar 1: Pre-chorus
 Play this 4X 
  e|---0---0-----------0---0---0---0-|
  b|-----------3---3-----------------|
  g|---------------------------------|
  d|---------------------------------|
  a|-----------------0---0---3---3---|
  E|-1---1---0---0-------------------|

Guitar 1: Chorus
Play this 4 X
  e|---0---0-----------0---0---0---0-|
  b|-----------3---3-----------------|
  g|---------------------------------|
  d|---------------------------------|
  a|-----------------0---0---3---3---|
  E|-1---1---0---0-------------------|
    " And now the beat..."

Then play this the 5th time
  e|---0---0-------------------------|
  b|-----------3---3-----------------|
  g|---------------------------------|
  d|---------------------------------|
  a|-0---0---------------------------|
  E|---------3---3-------------------|

Guitar 1:
Play this 2X
  e|------------------------------------|
  b|------------------------------------|
  g|---4---4---4---4---5---5---5---5----|
  d|------------------------------------|
  a|-0---0---0---0---0---0---0---0------|
  E|------------------------------------| 
                                          
  e|------------------------------------| 
  b|------------------------------------| 
  g|---4---4---4---4---2---2---2---2----|
  d|-3---3---3---3---3---3---3---3------|
  a|------------------------------------|
  E|------------------------------------| 

Guitar 2:
Play this 2X
  e|------------------------------------| 
  b|---10/13---10----10---13---10-------| 
  g|--------------9---------------9---9-|
  d|--------------------------------10--|
  a|------------------------------------| 
  E|------------------------------------| 

  e|------------------------------------| 
  b|--10--9--10--10-----------10--------|
  g|----------------10--7--10----10--7--|
  d|------------------------------------|       
  a|------------------------------------| 
  E|------------------------------------| 

  e|------------------------------------| 
  b|------------------------------------| 
  g|----7----10----9----7---------------| 
  d|--9---------------------------------| 
  a|------------------------------------| 
  E|------------------------------------|

Guitar 1: Verse 2
 Play this 2X
  e|------------------------------------|
  b|------------------------------------|
  g|---4---4---4---4---5---5---5---5----|
  d|------------------------------------|
  a|-0---0---0---0---0---0---0---0------|
  E|------------------------------------| 
                                          
  e|------------------------------------| 
  b|------------------------------------| 
  g|---4---4---4---4---2---2---2---2----|
  d|-3---3---3---3---3---3---3---3------|
  a|------------------------------------|
  E|------------------------------------| 

Guitar 1:
 Then play this 3X
  e|---------------------------------|                 
  b|---------------------------------|             
  g|---2---2---2---2---0---0---0---0-|    
  d|---------------------------------|
  a|-0---0---0---0-------------------|
  E|-----------------1---1---1---1---| 
                                          
  e|-------------------1---1---1---1-| 
  b|---0---0---0---0-----------------| 
  g|---------------------------------|
  d|-----------------0---0---0---0---|
  a|---------------------------------|
  E|-0---0---0---0-------------------| 

Guitar 1:
Play this 8X
  e|---0---0-----------0---0---0---0-|
  b|-----------3---3-----------------|
  g|---------------------------------|
  d|---------------------------------|
  a|-0---0-----------0---0---3---3---|
  E|---------0---0-------------------|

Guitar 2:
  e|------------------------------------|
  b|-10 12 13 12 10---------------------|
  g|------------------------------------|
  d|----------------10---12-14-12-14-10-|
  a|------------------------------------|
  E|------------------------------------|

  e|------------------------------------|
  b|-10 12 13 12 10---------------------|
  g|---------------------------------14-|
  d|----------------10---12-14-12-14----|
  a|------------------------------------|
  E|------------------------------------|

  e|------------------------------------|
  b|-10 12 13 12 10---------------------|
  g|------------------------------------|
  d|----------------10---12-14-12-14-10-|
  a|------------------------------------|
  E|------------------------------------|

  e|------------------------------------|
  b|-10 12 13 12 10---------------------|
  g|----------------10---9-7-5-7-9-10---|
  d|------------------------------------|
  a|------------------------------------|
  E|------------------------------------|
  
Guitar 1:
 Play this 7X
  e|----0----0----------0---0---0---0|
  b|-----------3---3-----------------|
  g|---------------------------------|
  d|---------------------------------|
  a|-----------------0---0---3---3---|
  E|-1---1---0---0-------------------|
        "Now the beat..."

On the 8th time, play this
  e|---0---0-----------------5-------|
  b|-----------3---3---------5-------|
  g|-------------------------5-------|
  d|-------------------------5-------|
  a|-0---0-------------------5-------|
  E|---------3---3-----------5-------|




THANKS!





Comments


Popular Lacuna Coil tabs & chords
Enjoy The Silence 2 Bass Tabs
Falling Bass Tabs
Humane Bass Tabs
Humane 3 Bass Tabs
Lost Lullaby Bass Tabs
Lost Lullaby 2 Bass Tabs
Senzafine Bass Tabs
Cold Heritage 1 Tabs
Game 1 Tabs
Stars Tabs


Song lyrics



↑ Back to top | Tablatures and chords are parodies/interpretations of the original songs. You may use it for private study, scholarship, research or language learning purposes only
© 2014 AZChords.com Contact us | Privacy policy | DMCA | Add/correct tabs | Request tabs | Top 50 tabs