» » »

Falling Again Tabs (ver.3)

Artists:  A B C D E F G H I J K L M N O P Q R S T U V W X Y Z # 

Falling Again Tabs (ver.3)

Lacuna Coil
Rating:
0/5 (0 votes)

Hard to play? Try these video lessons and learn fast.
                Falling Again (base acústica)
Lacuna Coil

Riff A
E(------------------------(------------------------(------------------------(
B(----0-----0-----0-----0-(----1-----1-----1-----1-(----0-----0-----0-----0-(
G(------------------------(------------------------(------------------------(
D(------------------------(------------------------(--3-----3-----3-----3---(
A(--0-----0-----0-----0---(--0-----0-----0-----0---(------------------------(
E(------------------------(------------------------(------------------------(

E(------------------------(
B(------------------------(
G(---2-----2-----2-----2--(
D(-3-----3-----3-----3----(
A(------------------------(
E(------------------------(

Riff B
E(------------------------(------------------------(------------------------(
B(------------------------(------------------------(----0-----0-----0-----0-(
G(----2-----2-----2-----2-(----0-----0-----0-----0-(------------------------(
D(------------------------(------------------------(------------------------(
A(--0-----0-----0-----0---(------------------------(------------------------(
E(------------------------(--1-----1-----1-----1---(--0-----0-----0-----0---(

E(----1-----1-----1-----1-(
B(------------------------(
G(------------------------(
D(--0-----0-----0-----0---(
A(------------------------(
E(------------------------(

Riff C                                                Riff D             Riff E
E(------------------------(------------------------(------------------(----(
B(------------------------(------------------------(------------------(----(
G(------------------------(------------------------(------------------(----(
D(----2-----2-----0-----0-(----2-----2-----0-------(------2-----2-----(----(
A(--0-----0---------------(--0-----0-------------3-(----0-----0-------(--7-(
E(--------------4-----4---(--------------3-----3---(----------------3-(--5-(

Coro x2

E(----------------------------(--------(   //
B(----------------------------(--------(  //
G(----------------------------(--------( // solamente en el 
D(----------2---------------5-(--------( \\ primer coro.
A(--3---2---0---3---5---7---3-(--3---5-(  \\
E(--1---0-------1---3---5-----(--1---3-(   \\

Orden:
Ax4
Bx3
Cx4
Coro
Ax4
Bx3
Coro
Ax2
Coro
Dx1
Ex1
            
Hard to play? Try these video lessons and learn fast. | Correct




comments powered by Disqus
↑ Back to top | Tablatures and chords are parodies/interpretations of the original songs. You may use it for private study, scholarship, research or language learning purposes only