» » »

Lacuna Coil, Enjoy The Silence Tabs (ver.3)

Artists:  A B C D E F G H I J K L M N O P Q R S T U V W X Y Z # 

Enjoy The Silence Tabs (ver.3)

Lacuna Coil Tabs
Rating:
3/5 (2 votes)
Enjoy The Silence lessons Tabs too difficult? Try these video lessons and learn fast
                -------------------------------------------------------------------------------
                             Enjoy the Silence - Lacuna Coil
-------------------------------------------------------------------------------

Tuning:Drop B (I think, maybe completely wrong. I kept tuning down until it was right; 
make note of how far down I went. :\)

fig1
c|--11-13--11-9---|
G|----------------|
E|-8--8---8--8----|
B|----------------|
F|----------------|
B|----------------|

fig2
c|---------13-11--|
G|--12-11---------|
E|-8--8---8--8----|
B|----------------|
F|----------------|
B|----------------|
fig3
c|--11-13--14-9--9----9----|
G|-----------------11---11-|
E|-8--8---8--8--8-8--8-8---|
B|-------------------------|
F|-------------------------|
B|-------------------------|
fig4
c|---------|
G|---------|
E|---------|
B|-6-9-1-4-|
F|-6-9-1-4-|
B|-6-9-1-4-|
fig5
c|---------|
G|---------|
E|---------|
B|-6-9-1-0-|
F|-6-9-1-0-|
B|-6-9-1-0-|

This song uses two guitars, but being an inteligent LC fan you already knew that, and Im 
you can work out the order and strumming patterns for fig4&5.

| /  slide up
| \  slide down
| h  hammer-on
| p  pull-off
| ~  vibrato
| +  harmonic
| x  Mute note
===============================================================================
            
Submit corrections

comments powered by Disqus
↑ Back to top | Lacuna Coil Tabs for Enjoy The Silence. Lyrics for acoustic guitar and electric guitar. Tablatures and chords are parodies/interpretations of the original songs. You may use it for private study, scholarship, research or language learning purposes only