» » »

Enjoy The Silence Bass tabs (ver.2)

Artists:  A B C D E F G H I J K L M N O P Q R S T U V W X Y Z # 

Enjoy The Silence Bass tabs (ver.2)

Lacuna Coil
Rating:
3/5 (2 votes)

Hard to play? Try these video lessons and learn fast.
                ----------------------------------------------------------------------------
			     ENJOY THE SILENCE - Lacuna Coil
----------------------------------------------------------------------------


Tuning: standard
I know this is played with a 5-string, but i found a way to play with a 4-string, 
and it sounds really accurate.

  1st chorus x2
G|-------------------------------------------------------------------------|
D|-------------------------------------------------------------------------|
A|---------------------------------1-1-1-1-1-1-1-1-------------------------|
E|-0-0-0-0-0-0-0-0-3-3-3-3-3-3-3-3-----------------5-5-5-5-5-5-5-5---------|

  verse (listen for timing)
G|-------------------------------------------------------------------------|
D|---------0-------------------------0-------------------------------------|
A|-1--------------------------1--------------------------------------------|
E|---------------3-----3-------------------3----3--------------------------|

  2nd chorus
G|-------------------------------------------------------------------------|
D|-------------------------------------------------------------------------|
A|---------------------------------1-1-1-1-1-1-1-1-------------------------|
E|-0-0-0-0-0-0-0-0-3-3-3-3-3-3-3-3-----------------5-5-5-5-5-5-5-5---------|

G|-------------------------------------------------------------------------|
D|-------------------------------------------------------------------------|
A|---------------------------------1-1-1-1-1-1-1-1-------------------------|
E|-0-0-0-0-0-0-0-0-3-3-3-3-3-3-3-3-----------------6-6-6-6-6-6-6-6-6-6-6-6-|

yep, that's pretty much it.


| /  slide up
| \  slide down
| h  hammer-on
| p  pull-off
| ~  vibrato
| +  harmonic
| x  Mute note
============================================================================
            
Hard to play? Try these video lessons and learn fast. | Correct




comments powered by Disqus
↑ Back to top | Tablatures and chords are parodies/interpretations of the original songs. You may use it for private study, scholarship, research or language learning purposes only