» » »

Lacuna Coil, Enjoy The Silence Tabs (ver.2)

Artists:  A B C D E F G H I J K L M N O P Q R S T U V W X Y Z # 

Enjoy The Silence Tabs (ver.2)

Lacuna Coil Tabs
Rating:
0/5 (0 votes)
Enjoy The Silence lessons Tabs too difficult? Try these video lessons and learn fast
                
Lacuna Coil so happens to be my favorite band of all time. Ive been listening to them 
about
4 years now and I have learned many songs from them. But this time I decided to figure 
the
on my own. So here it is people my first tab I have ever submitted. Im almost certain 
it
is 100% correct. But I might be off by a little. In April 6, 2006 at the Lifetstyles Pavillion
I watched Lacuna Coil play. So I watched Mauz play it, so I basically  watched his 
So I am dead certain
that this is 100% correct.


Riff 1
e|--------------------9--9--||---------------------------|
B|-------12-----12----------||-------12-----12---10--10--|
G|--------------------------||---------------------------|
D|---9------9---------------||-----9------9--------------|x2
A|--------------------------||---------------------------|
D|--------------------------||---------------------------|

Riff 2
e|--------------------------||---------------------------|
B|--------------------------||-----12----12---10--10-----|
G|------12------12---11--11-||---------------------------|
D|---9------9---------------||-9-----9-------------------|x2
A|--------------------------||---------------------------|
D|--------------------------||---------------------------|


Chorus
e|------------------------------------------------------|
B|------------------------------------------------------|
G|------------------------------------------------------|
D|---22222222----55555555----00000000----77777777-------|
A|---22222222----55555555----00000000----77777777-------|
D|---22222222----55555555----00000000----77777777-------|

Riff 3
e|--------------------9--9--|   |-------10----10------------|   |------------------------------|
B|-------12-----12----------|   |-------------------10--10--|   |--------10------10------------|
G|--------------------------|   |---------------------------|   |--------------------11---11---|
D|---9------9---------------|   |----9------9---------------|   |----9-------9-----------------|
A|--------------------------|   |---------------------------|   |------------------------------|
E|--------------------------|   |---------------------------|   |------------------------------|

Riff 4
e|-------------------------------|
B|-------------------------------|
G|-------------------------------|
D|-------------------------------|
A|---2--------5-----\10----------|
E|-------------------------------|


Order:

Riff 1
Riff 2
/Chorus\
\Riff 3/
Chorus
Riff 1
Riff 2
Riff 4
Chorus
/Chorus\
\Riff 3/
Chorus
/Chorus\
\Riff 3/x4
Riff3 (Keep playing until it fades)
            
Submit corrections

comments powered by Disqus
↑ Back to top | Lacuna Coil Tabs for Enjoy The Silence. Lyrics for acoustic guitar and electric guitar. Tablatures and chords are parodies/interpretations of the original songs. You may use it for private study, scholarship, research or language learning purposes only