>
 >
Angry Video Game Nerd 1

Angry Video Game Nerd 1 Guitar Tabs

Kyle Justin - Angry Video Game Nerd 1 chords, tabs, tablatures, lyrics

Guitar lessons | Add/correct | Request | Top 50 tabs Artists:  A B C D E F G H I J K L M N O P Q R S T U V W X Y Z 0-9

Angry Video Game Nerd 1 Guitar Tabs – Kyle Justin

CD, Sheet music, Poster

Do you like Angry Video Game Nerd 1? Share with your friends now
Bass TabsChordsChords v2Chords v3Chords v4Chords v5Chords v6TabsTabs v2Tabs v3Ukulele
Tuning: Drop D

When making the standard tuning power chord shape on the A and middle D strings, 
make sure to use your middle finger to mute the low D string. Anything on the G 
string is completely optional and it will sound fine without it.

Intro:
e|-------------------------------------------------------------------------|
B|-------------------------------------------------------------------------|
G|---------5---5---7--7--7--7--7--7-7-------------------------------5-5----|
D|-3---3---5---5---7--7--7--7--7--7-7---3---3---6---6---5---5-------5-5----|
A|-3---3---3---3---5--5--5--5--5--5-5---3---3---6---6---5---5-------3-3----|
D|-3---3--------------------------------3---3---6---6---5---5--------------|
                                                    He's gonna take you...
                                 Main riff:*
e|-------------------------------------------------------------------------|
B|-------------------------------------------------------------------------|
G|---------------------5---5-5-------------------8-8-8-8-8-8-8-8-T-T-T-T---|
D|-3---3---6---6---5---5---5-5---6-6-6-6-6-6-6-6-8-8-8-8-8-8-8-8-T-T-T-T---|
A|-3---3---6---6---5---3---3-3---6-6-6-6-6-6-6-6-6-6-6-6-6-6-6-6-8-8-8-8---|
D|-3---3---6---6---5-------------6-6-6-6-6-6-6-6---------------------------|
   To play the shitty...         He'd rather have...

e|-------------------------------------------------------------------------|
B|-------------------------------------------------------------------------|
G|-8-8-8-8-6-6-6-6-6-6-6-6-----------------8-8-8-8-8-8-8-8-T-T-T-T-8-8-8-8-|
D|-8-8-8-8-6-6-6-6-6-6-6-6-6-6-6-6-6-6-6-6-8-8-8-8-8-8-8-8-T-T-T-T-8-8-8-8-|
A|-6-6-6-6-4-4-4-4-4-4-4-4-6-6-6-6-6-6-6-6-6-6-6-6-6-6-6-6-8-8-8-8-6-6-6-6-|
D|-------------------------6-6-6-6-6-6-6-6---------------------------------|
   Dump in his ear...      He'd rather eat...
                    Outro: (play three times)         Ending:
e|-------------------------------------------------------------------------|
B|-------------------------------------------------------------------------|
G|-6-6-6-6-6-6-6-6-----------8-8-8-8-6-6-6-6-6-6-6-6---------8---8---------|
D|-6-6-6-6-6-6-6-6---6-6-6-6-8-8-8-8-6-6-6-6-6-6-6-6-6---6---8---8---6-----|
A|-4-4-4-4-4-4-4-4---6-6-6-6-6-6-6-6-4-4-4-4-4-4-4-4-6---6---6---6---6-----|
D|-------------------6-6-6-6-------------------------6---6-----------6-----|
   Beer...
Optional bridge (play after outro):
e|-------------------------------|
B|-------------------------------|
G|---------8-8-8-8-T-T-T-T-T-T-T-|
D|-6-6-6-6-8-8-8-8-T-T-T-T-T-T-T-|
A|-6-6-6-6-6-6-6-6-8-8-8-8-8-8-8-|
D|-6-6-6-6-----------------------|

*I used T's instead of 10 to save room, as this is a timed tab.





Comments


Popular Kyle Justin tabs & chords
Angry Video Game Nerd Bass Tabs
Angry Video Game Nerd 1 Chords
Angry Video Game Nerd 2 Chords
Angry Video Game Nerd 3 Chords
Angry Video Game Nerd 4 Chords
Angry Video Game Nerd 5 Chords
Spiderman Chords
Angry Video Game Nerd Tabs
Avgn Theme Tabs
Angry Video Game Nerd Ukulele


Song lyrics



↑ Back to top | Tablatures and chords are parodies/interpretations of the original songs. You may use it for private study, scholarship, research or language learning purposes only
© 2014 AZChords.com Contact us | Privacy policy | DMCA | Add/correct tabs | Request tabs | Top 50 tabs