» » »

Angry Video Game Nerd Tabs (ver.1)

Artists:  A B C D E F G H I J K L M N O P Q R S T U V W X Y Z # 

Angry Video Game Nerd Tabs (ver.1)

Kyle Justin
Rating:
5/5 (10 votes)

Hard to play? Try these video lessons and learn fast.
                This is the normal(Short) version that is played at the start of most AVGN Videos, I
this against the video that shows you how to play it, should be spot on, if not lemme 
thanks!

e--------------------------------------------------------------------| X2
B--------------------------------------------------------------------|
G--------------------------------------------------------------------|
D--------------------5--5--5-----------------------------------------|
A--3-3--6-6--5-5--3--3--3--------------------------------------------|
E--1-1--4-4--3-3-----------------------------------------------------|


e---------------------------------------------------------------------|
B---------------------------------------------------------------------|
G---------------------------------------------------------------------|
D--------------8-8-8-8-8--10-10--8-8--6-6-6-6-6-6---------------------|
A-6-6-6-6-6-6-6-6-6-6--8---8---6-6--4-4-4-4-4-4-----------------------|
E-4-4-4-4-4-----------------------------------------------------------|

e---------------------------------------------------------------------|
B---------------------------------------------------------------------|
G---------------------------------------------------------------------|
D--------------8-8-8-8-8--10-10--8-8-8--6-6-6-6-6-6-------------------|
A-6-6-6-6-6-6-6-6-6-6--8---8---6-6-6--4-4-4-4-4-4---------------------|
E-4-4-4-4-4-----------------------------------------------------------|

e---------------------------------------------------------------------|
B---------------------------------------------------------------------|
G---------------------------------------------------------------------|
D--------8-8--6-6-6-6-6-6-------------8-8----6-6-6-6------------------|
A--6-6--6-6--4-4-4-4-4-4-------6-6--6-6----4-4-4-4--------------------|
E--4-4-----------------------------4-4--------------------------------|

e---------------------------------------------------------------------|
B---------------------------------------------------------------------|
G---------------------------------------------------------------------|
D--------8-8----------------------------------------------------------|
A--6-6--6-6--6--------------------------------------------------------|
E--4-4--------4-------------------------------------------------------|
            
Hard to play? Try these video lessons and learn fast. | Correct




comments powered by Disqus
↑ Back to top | Tablatures and chords are parodies/interpretations of the original songs. You may use it for private study, scholarship, research or language learning purposes only