» » »

Angry Video Game Nerd Bass tabs (ver.1)

Artists:  A B C D E F G H I J K L M N O P Q R S T U V W X Y Z # 

Angry Video Game Nerd Bass tabs (ver.1)

Kyle Justin
Rating:
5/5 (1 vote)

Hard to play? Try these video lessons and learn fast.
                -------------------------------------------------------------------------------
			     AVGN Theme - Kyle Justin
-------------------------------------------------------------------------------


Bass Starts 50 Seconds in. (When Kyle Says Shirt)

BPM:120
Tuning:Standard

G|--------|-------|----------------------------|------------------------|
D|--------|-------|----------------------------|------------------------|
A|--------|--6----|--8---8--8--6-----6--6--4---|--4---4--4--4--4--3--1--|
E|--4-----|-------|----------------------------|------------------------|

G|----------------------|----------------------|-------------------------|
D|----------------------|----------------------|--------6-----------6----|
A|----------------------|--6---6--6--6--6--6--6|--8--8-----8--6--6----6--|
E|--4---4--4--4--4--4--4|----------------------|-------------------------|

G|----------------------|--------------------|------------------------|
D|----------------------|--------------------|------------------------|
A|--4---4--4--4--4--4--4|-----------6-6-6--6-|--4---4--4--4--4--4--4--|
E|----------------------|-4---4--4-----------|------------------------|

G|---------------------|-----------------------|--------------------|
D|---------------------|-----------------------|--------------------|
A|------------6-6-6--6-|--4---4--4--4--4--4--4-|-----------6-6-6--6-|
E|--4---4--4-----------|-----------------------|-4---4--4-----------|

G|-----------------------|---------------------|--------------------------------|
D|-----------------------|---------------------|--------------------------------|
A|--4---4--4--4--4--4--4-|------------6-6-6--6-|--------------------------------|
E|-----------------------|--4---4--4-----------|--1--1--1--1--1--13-13--13--11--|
Then Repeat from the top. Hope this helps.
            
Hard to play? Try these video lessons and learn fast. | Correct




comments powered by Disqus
↑ Back to top | Tablatures and chords are parodies/interpretations of the original songs. You may use it for private study, scholarship, research or language learning purposes only