» » »

Kutless, Your Touch Bass tabs (ver.1)

Artists:  A B C D E F G H I J K L M N O P Q R S T U V W X Y Z # 

Your Touch Bass tabs (ver.1)

Kutless Tabs
 Rating:
4/5 (4 votes)
Your Touch lessons Tabs too difficult? Try these video lessons and learn fast
                Your Touch by Kutless
Standard Tuning

(Intro)
G:-----------|-----------|-----------|-----------|
D:-----------|-----------|-----------|-----------|  
A:--------3--|--------3--|--------3--|--------3--|
E:3--3--6---6|3--3--6---6|3--3--6---6|3--3--6---6|

(Verse)
G:-----------|-----------|-----------|-----------|
D:-----------|-0---0---0-|-----------|-0---0---0-|
A:-1--1--3---|-----------|-1---1---3-|-----------|
E:----------3|-----------|-----------|-----------|

(Chorus)
G:-----------|-----------|-----------|-----------|
D:-----------|-----------|-3---3---3-|-----------|
A:-----------|-----------|-----------|-----------|
E:-3---3---3-|-6---6---6-|-----------|6--6--6--6-|

G:-----------|-----------|-----------|-----------|
D:-----------|-----------|-----------|-----------|  
A:--------3--|--------3--|--------3--|-----------|
E:3--3--6---6|3--3--6---6|3--3--6---6|-----------|

G:-----------|-----------|-----------|-----------|
D:-----------|-0---0---0-|-----------|-0---0---0-|
A:-1--1-3----|-----------|-1---1---3-|-----------|
E:--------3--|-----------|-----------|-----------|

G:-----------|-----------|-----------|-----------|
D:-----------|-----------|-3---3---3-|-----------|  x3
A:-----------|-----------|-----------|-----------|
E:-3---3---3-|-6---6---6-|-----------|6--6--6--6-|

G:-----------|-----------|-----------|-----------|
D:-----------|-----------|-----------|-----------|
A:-----------|-----------|-----------|-----------|
E:-3---6---1-|-----------|-3---6---1-|-----------|

(During Solo)
G:-----------|-----------|-----------|-----------|
D:-----------|-----------|-----------|---3--3--3-|  x4
A:5--5--5--5-|5---5---5-5|-5--5--5--5|-5---------|
E:-----------|-----------|-----------|-----------|

G:-----------|-----------|-----------|-----------|
D:-----------|-----------|-----------|-----------|
A:--5-----5--|--5-----5--|--5------5-|--5-----5--|
E:-----------|-----------|-----------|-----------|

(play fast)
G:-----------|-----------|-----------|-----------|
D:-----------|--3-----5--|-----------|--5-----3--|  x15
A:--5-----5--|-----------|-5---5---5-|-----------|
E:-----------|-----------|-----------|-----------|

(Chorus)
G:-----------|-----------|-----------|-----------|
D:-----------|-----------|-3---3---3-|-----------|  x7
A:-----------|-----------|-----------|-----------|
E:-3---3---3-|-6---6---6-|-----------|6--6--6--6-|

(Outro)
G:-----------|-----------|-----------|-----------|
D:-----------|-----------|-----------|-----------|
A:-----------|-----------|-----------|-----------|
E:-----3-----|-----------|-----------|-----------|

Thanks, please rate it after you learn it.
_TheBassist01_
            
Submit corrections

comments powered by Disqus
↑ Back to top | Kutless Bass for Your Touch. Lyrics for acoustic guitar and electric guitar. Tablatures and chords are parodies/interpretations of the original songs. You may use it for private study, scholarship, research or language learning purposes only