>
 >
Your Touch 2

Your Touch 2 Guitar Tabs

Kutless - Your Touch 2 chords, tabs, tablatures, lyrics

Guitar lessons | Add/correct | Request | Top 50 tabs Artists:  A B C D E F G H I J K L M N O P Q R S T U V W X Y Z 0-9

Your Touch 2 Guitar Tabs – Kutless

CD, Sheet music, Poster

Do you like Your Touch 2? Share with your friends now
Bass TabsBass Tabs v2TabsTabs v2Tabs v3Tabs v4Tabs v5Tabs v6Tabs v7


	Into/verse

	--------------------------------------------------------------------
         --------------------------------------------------------------------
	---------3----------------5---------------7----------------5--------
	------5----5-----------7----7----------9----9-----------7---7-----
	--5----------5------7---------7----9----------9-----7------------7-
	-3----------------5---------------7----------------5----------------									     	

			Pre-chorus (strum each chord once)

	----------------------------------------------------------------------
	----------------------------------------------------------------------
             ----------------------------------------------------------------------
	-5--------7--------3------------------5-------7-------3---------------
	-5--------7--------3------------------5-------7-------3---------------
	-3--------5--------1------------------3-------5-------1---------------


			Chorus                          Listen to song to get timing to switch chords

	--------------------------------------------------------------------------
	--------------------------------------------------------------------------
	----------------3--3--3------------------------------------------------
	-5--5--5--5--5--3--3--3--3--3--3--3--3--3--3--3--3--3------------
	-5--5--5--5--5--1--1--1--3--3--3--3--3--3--3--3--3--3-----------
	-3--3--3--3--3-----------1--1--1--1--1--1--1--1--1--1------------


			Second verse is the same for guitar 1 but only with distortion the second guitar strums these chords every time the first guitar moves to the next riff


	--------------------------------------------
	--------------------------------------------
	--------------------------------------------
	-8----------10---------5------------------
	-8----------10---------5------------------
	-6-----------8---------3------------------












	First part of bridge - non distorted part for guitar 1

(First Part)	                                   (Second part, after short dis. Part)	
----------------------------------------          -----------------------------------
----------------------------------------          -----------------------------------
----------------------------------------          -----------------------------------
0-------------4------------------------          -----0-----4-----3----------------
------0--45-----45-------------------           -----------------------------------
-0---------------------------0---------           -0--------------------------------


				Distortion part of bridge


	----------------------------------------
	----------------------------------------
	----------------------------------------
	------5--------------------------------
	------------5------3------5-----------
	-----------------------------------5----


            Riff      ( hard Rock part after he screams  "your touch"!!!!)


-----3-3-----5-5-5----------3-3-----------6--6--------------------------
553355555-----5--533-5--5--5--6--6--------------------------
551155533-----5--511-5--5--5--4--4--------------------------
33-----3 3-3-------- 3--3------3--3--3---------------------------------



		Play this^ over and over until you go back into chorus





Comments


Popular Kutless tabs & chords
Your Touch Bass Tabs
Even If Chords
Redeemer Chords
Strong Tower 3 Chords
All The Words Tabs
Saved 2 Tabs
Take Me In Intro Tabs
Arms Of Love Ukulele
More Than It Seems Ukulele
Winds Of Change Ukulele


Song lyrics



↑ Back to top | Tablatures and chords are parodies/interpretations of the original songs. You may use it for private study, scholarship, research or language learning purposes only
© 2014 AZChords.com Contact us | Privacy policy | DMCA | Add/correct tabs | Request tabs | Top 50 tabs