» » »

Kutless, Your Touch Tabs (ver.3)

Artists:  A B C D E F G H I J K L M N O P Q R S T U V W X Y Z # 

Your Touch Tabs (ver.3)

Kutless Tabs
Rating:
0/5 (0 votes)
Hard to play? Try these video lessons and learn fast.
                

	Into/verse

	--------------------------------------------------------------------
         --------------------------------------------------------------------
	---------3----------------5---------------7----------------5--------
	------5----5-----------7—----7----------9----9-----------7—---7-----
	—--5----------5------7---------7----9----------9-----7------------7-
	-3----------------5---------------7----------------5----------------									     	

			Pre-chorus (strum each chord once)

	----------------------------------------------------------------------
	----------------------------------------------------------------------
             ----------------------------------------------------------------------
	-5--------7--------3------------------5-------7-------3---------------
	-5--------7--------3------------------5-------7-------3---------------
	-3--------5--------1------------------3-------5-------1---------------


			Chorus                          Listen to song to get timing to switch chords

	--------------------------------------------------------------------------
	--------------------------------------------------------------------------
	----------------3--3--3------------------------------------------------
	-5--5--5--5--5--3--3--3--3--3--3--3--3--3--3--3--3--3------------
	-5--5--5--5--5--1--1--1--3--3--3--3--3--3--3--3--3--3-----------
	-3--3--3--3--3-----------1--1--1--1--1--1--1--1--1--1------------


			Second verse is the same for guitar 1 but only with distortion the second guitar strums these chords every time the first guitar moves to the next riff


	--------------------------------------------
	--------------------------------------------
	--------------------------------------------
	-8----------10---------5------------------
	-8----------10---------5------------------
	-6-----------8---------3------------------












	First part of bridge - non distorted part for guitar 1

(First Part)	                                   (Second part, after short dis. Part)	
----------------------------------------          -----------------------------------
----------------------------------------          -----------------------------------
----------------------------------------          -----------------------------------
—0-------------4------------------------          -----0-----4-----3----------------
------0--4—5-----4—5-------------------           -----------------------------------
-0---------------------------0---------           -0--------------------------------


				Distortion part of bridge


	----------------------------------------
	----------------------------------------
	----------------------------------------
	------5--------------------------------
	------------5------3------5-----------
	-----------------------------------5----


            Riff      ( hard Rock part after he screams  "your touch"!!!!)


-----3-3-----5-5-5----------3-3-----------6--6--------------------------
–5–5–3—3–5–5–5–5–5-----5--5—3–3–-5--5--5--6--6--------------------------
–5–5–1—1–5–5–5–3–3-----5--5—1–1–-5--5--5--4--4--------------------------
–3–3-----3 3-3-------- 3--3------3--3--3---------------------------------



		Play this^ over and over until you go back into chorus
            

comments powered by Disqus
↑ Back to top | Kutless Tabs for Your Touch. Lyrics for acoustic guitar and electric guitar. Tablatures and chords are parodies/interpretations of the original songs. You may use it for private study, scholarship, research or language learning purposes only