» » »

Your Touch Tabs (ver.2)

Artists:  A B C D E F G H I J K L M N O P Q R S T U V W X Y Z # 

Your Touch Tabs (ver.2)

Kutless
Rating:
0/5 (0 votes)

Hard to play? Try these video lessons and learn fast.
                your touch
- kutless 
INTRO
e---------------------------------------------------------------------
B---------------------------------------------------------------------
G---------3-----------------5-------------------9---------------------
D-------5---5------------8----8-------------10-----10-----------------
A-----5-------5-------8---------8-------10-------------10-------------
E---3--------------6-----------------8--------------------------------
-----------------------------
-----------------------------
------------7----------------
---------8----8--------------
------8---------8------------
---6-------------------------
CHORUS
e--------------------------------------------------------------------
B--------------------------------------------------------------------
G----------3---------------------------------------------------------
D----5-----3-----3---------------------------------------------------
A----5-----1-----3---------------------------------------------------
E----3-----------1---------------------------------------------------
transcribed be joe davenport
            
Hard to play? Try these video lessons and learn fast. | Correct




comments powered by Disqus
↑ Back to top | Tablatures and chords are parodies/interpretations of the original songs. You may use it for private study, scholarship, research or language learning purposes only