» » »

Tonight Tabs (ver.3)

Artists:  A B C D E F G H I J K L M N O P Q R S T U V W X Y Z # 

Tonight Tabs (ver.3)

Kutless
Rating:
0/5 (0 votes)

Hard to play? Try these video lessons and learn fast.
                Tuning: Drop-d

*p=pull
*h=hammer	
*{}=play when repeating chorus only


Intro/verse  (clean)

E------------------------------------------------------------------------------------
B------------------------------------------------------------------------------------
G------------------------------------------------------------------------------------
D----0-------------------------0-------------------------0-------------------------0-
A---------5h6---5p4---4h5------------5h6---5p4---4h5-----------5h6---6h8---8p6-------
D-0-----0-----0-----0------0-------0-----0-----0------0------0-----0-----0------0----



Chorus  (distorted)

E------------------------------------------------------------------------------------
B------------------------------------------------------------------------------------
G------------------------------------------------------------------------------------
D-0--0-0--0-0----3-3-8-8-8-8---0--0-0--0-0----3-3-10-10-10-10------------------------
A-0--0-0--0-0----3-3-8-8-8-8---0--0-0--0-0----3-3-10-10-10-10------------------------
D-0--0-0--0-0----3-3-8-8-8-8---0--0-0--0-0----3-3-10-10-10-10------------------------





Chorus cont.
E------------------------------------------------------------------------------------
B------------------------------------------------------------------------------------
G------------------------------------------------------------------------------------
D-0--0-0--0-0-----3-3-8-8-8-8--------0--3--2--0--3--0------{3-3-0}
A-0--0-0--0-0-----3-3-8-8-8-8--------0--3--2--0--3--0------{3-3-0}
D-0--0-0--0-0-----3-3-8-8-8-8--------0--3--2--0--3--0------{3-3-0}
            
Hard to play? Try these video lessons and learn fast. | Correct




comments powered by Disqus
↑ Back to top | Tablatures and chords are parodies/interpretations of the original songs. You may use it for private study, scholarship, research or language learning purposes only