>
 >
Tonight

Tonight Guitar Tabs

Kutless - Tonight chords, tabs, tablatures, lyrics

Guitar lessons | Add/correct | Request | Top 50 tabs Artists:  A B C D E F G H I J K L M N O P Q R S T U V W X Y Z 0-9

Tonight Guitar Tabs – Kutless

CD, Sheet music, Poster

Do you like Tonight? Share with your friends now
TabsTabs v2Tabs v3
Tonight	
By Kutless

Drop D tuning
h= hammer-on
p= pull-off
x= palm mute

Intro (clean with a flange) 
e|--------------------------------------------------------------------------------
b|--------------------------------------------------------------------------------
g|--------------------------------------------------------------------------------
d|--------------------------------------------------------------------------------
a|-------5----5h6----5p4----4h5------5-----5h6--5p4----4h5----------
d|---0-----0-------0--------0---------0-----0------0------0-----------------

e|-------------------------------------------
b|-------------------------------------------
g|-------------------------------------------
d|-------------------------------------------
a|------5----5h6---6h8--8-----5--------
d|---0-----0-----0------------0-----------

Chorus
e|-------------------------------------------------------------------------------------------------------------
b|------------------------------------------------------------------------------------------------------------
g|-------------------------------------------------------------------------------------------------------------
d|---0--0-0--0--3-3-3-3h8-8-8-8---0--0-0--0--3-3-3-3h10-10-10-10-10--------------------
a|---0--0-0--0--3-3-3-3h8-8-8-8---0--0-0--0--3-3-3-3h10-10-10-10-10--------------------
d|---0--0-0--0--3-3-3-3h8-8-8-8---0--0-0--0--3-3-3-3h10-10-10-10-10--------------------

e|-----------------------------------------------------------------------
b|-----------------------------------------------------------------------
g|-----------------------------------------------------------------------
d|---0--0-0--0--3-3-3-3h8-8-8-8---0--3-2-0-3--0------------
a|---0--0-0--0--3-3-3-3h8-8-8-8---0--3-2-0-3--0------------
d|---0--0-0--0--3-3-3-3h8-8-8-8---0--3-2-0-3--0------------
                                                x x  x x
Verse is the same as the intro

Pre-bridge
d|---0--0--0--0--0--0--0--0--0--0--0--3-3--|     |--3--2--0--3---3---3---0--
a|---0--0--0--0--0--0--0--0--0--0--0--3-3--| 4x |--3--2--0--3---3---3---0--
d|---0--0--0--0--0--0--0--0--0--0--0--3-3--|     |--3--2--0--3---3---3---0--
      x  x  x   x  x  x  x  x   x  x  x
Bridge
e|------------------------------------------------------------------------------------------------------------
b|-----------------------------------------------------------------------------------------------------------
g|-----------------------------------------------------------------------------------------------------------
d|--------4------4---4----4h5-------5------5---5----5h8--------8-------9p8-----8p5----5h8----
a|----------------------------------------------------------------------------------------------------------
d|--0-0----0-0---0---0--------0-0----0-0---0---0---------0-0----0-0--------0--------0----------
     x x    x  x   x   x        x  x    x x   x    x         x  x   x  x        x        x 
e|---------------------------------------------------|     |-------------------------------------
b|---------------------------------------------------|     |-------------------------------------
g|---------------------------------------------------| x3 |------------------------------------
d|---------8-------9p8-----8p5----5h8---------|     |---3--2--0--3----3---3---0-----
a|---------------------------------------------------|     |---3--2--0--3----3---3---0-----
d|---0-0----0-0--------0--------0----------------|     |---3--2--0--3----3---3---0-----
      x x    x  x        x        x

Song Order:
Intro x1
Chorus x1
Verse x4
Chorus x2
Verse x2
Pre-bridge
Chorus x2
Bridge 
Chorus x4





Comments


Popular Kutless tabs & chords
Better Is One Day 1 Bass Tabs
Better Is One Day 2 Chords
I Do Not Belong Chords
Promise Of A Lifetime 4 Chords
Smile Chords
You Chords
Jesus Lord Of Heaven Intro Tabs
Saved 1 Tabs
Sea Of Faces Tabs
Shut Me Out Tabs


Song lyrics



↑ Back to top | Tablatures and chords are parodies/interpretations of the original songs. You may use it for private study, scholarship, research or language learning purposes only
© 2014 AZChords.com Contact us | Privacy policy | DMCA | Add/correct tabs | Request tabs | Top 50 tabs