» » »

Kutless, Tonight Tabs (ver.2)

Artists:  A B C D E F G H I J K L M N O P Q R S T U V W X Y Z # 

Tonight Tabs (ver.2)

Kutless Tabs
Rating:
0/5 (0 votes)
Hard to play? Try these video lessons and learn fast.
                This is in dropped D tuning
I haven't been able to find any tabs for this song! so here's one, i sounds just like it so have fun!!


intro & verse:
e-------------------------------------------------------------------------|
b-------------------------------------------------------------------------|
g-------------------------------------------------------------------------|
d-----0------------------0------------------0-----------------0-----------|
a------5h6--5h4--4h5------5h6--5h4--4h5------5h6--6h8--8h6----------------|
d--0-------------------0-----------------0-----------------0--------------|


Chorus:
e---------------------------------------------------------------------------------|
b---------------------------------------------------------------------------------|
g---------------------------------------------------------------------------------|
d------0-0----0-0-3---3-3-3-3----9--999-----0-0---0-0-3---3-3-3-3----10--101010---|
a------0-0----0-0-3---3-3-3-3----9--999-----0-0---0-0-3---3-3-3-3----10--101010---|
d -----0-0----0-0-3---3-3-3-3----9--999-----0-0---0-0-3---3-3-3-3----10--101010---|

e---------------------------------------------------------------------------------|
b---------------------------------------------------------------------------------|
g---------------------------------------------------------------------------------|
d----0-0---0-0-3---3-3-3-3----9--999-----0-1-0-1-0-1-------3-3--0-----------------|
a----0-0---0-0-3---3-3-3-3----9--999-----0-1-0-1-0-1-------3-3--0-----------------|
d----0-0---0-0-3---3-3-3-3----9--999-----0-1-0-1-0-1-------3-3--0-----------------|

l8er!
            

comments powered by Disqus
↑ Back to top | Kutless Tabs for Tonight. Lyrics for acoustic guitar and electric guitar. Tablatures and chords are parodies/interpretations of the original songs. You may use it for private study, scholarship, research or language learning purposes only