» » »

Kutless, Better Is One Day Bass tabs (ver.2)

Artists:  A B C D E F G H I J K L M N O P Q R S T U V W X Y Z # 

Better Is One Day Bass tabs (ver.2)

Kutless Tabs
 Rating:
4/5 (4 votes)
Better Is One Day lessons Tabs too difficult? Try these video lessons and learn fast
                
Any problems? Please make a comment! If your right, I will revise! Thanks! John 14:6


Playing order: I,V,C,S,V,C,B,C,C


INTRO
G(-------------------------------------------------)
D(------------11--9--8--6h8---------6h8------------)
A(--4~-----4-------------------2~-------------4~---)
E(-------------------------------------------------)


VERSE
      How lovely is your dwelling place,            oh Lord almighty
      For here my heart is satisfied,           Within Your presence
G(-------------------------------------------------------------------)
D(-------------------------------------------------------------4-----)
A(----------------------------------------------2~---------------4---)
E(--------2~--------------2~---------------2/4-----------------------)

       My soul doth long and even faint for you
       I sing beneath the shadow of your wings 
G(-----------------------------------------------------------------------------------------------)
D(----------------------------------------------------------------------11-----9--8--------------)
A(------------------------------------------------2~---------------4-----------------------------)
E(-------2~---------------------2~---------2/4---------------------------------------------------)



CHORUS
       Better is one day in your courts, Better is one day in your house,
G(-----------------------------------------------------------------------------)  
D(-------------------------------4-4--3-3------------------------------3-3-----)
A(-------------2-2-2-2-----------------------------4-4-4-4----------------1-1--)
E(-----------------------------------------------------------------------------)

        Better is one day in your courts than thousands elsewhere
G(-----------------------------------------------------------------------)
D(----------------------------------4-4--3-3-----------------------------)
A(--------------2-2-2-2-------------------------------4-4-4-4-4-4-4-4----)
E(-----------------------------------------------------------------------)


SOLO/INSTRUMENTAL BREAK
G(-------------------------------------------------------------)
D(--2-2-2-2-2-2-2-2--------------------------------------------)
A(---------------------2-2-2-2-2-2-2-2-4-4-4-4-4-4-4-4---------)
E(-------------------------------------------------------------)


BRIDGE
     My heart and flesh cry out                  to you the living God
     I've tasted and I've seen                   Come once again to me
G(----------------------------------------------------------------------)
D(----2-2-2-2-2-2-2-2-2-2-2-2-2-----------------------------------------)
A(----------------------------------------4------2-2-2-2-2-2-2-2-2-2-2--)
E(----------------------------------------------------------------------)

     Your spirit's water to my soul
     I will draw    near to      you            I will draw near to        you
G(-------------------------------------------(--------------------------------------------------)
D(2-2-2-2-2-2--------------------------------(-2-2-2-2-2-2--------------------------------------)
A(---------------4-4-4-4-4-4--2-2-2-2-2-2----(-------------4-4-4-4-4-4--2-2-2-2-2-2--4-4-4-4-4-4)
E(-------------------------------------------(--------------------------------------------------)
            
Submit corrections

comments powered by Disqus
↑ Back to top | Kutless Bass for Better Is One Day. Lyrics for acoustic guitar and electric guitar. Tablatures and chords are parodies/interpretations of the original songs. You may use it for private study, scholarship, research or language learning purposes only