» » »

Kutless, Better Is One Day Tabs (ver.1)

Artists:  A B C D E F G H I J K L M N O P Q R S T U V W X Y Z # 

Better Is One Day Tabs (ver.1)

Kutless Tabs
 Rating:
4/5 (11 votes)
Better Is One Day lessons Tabs too difficult? Try these video lessons and learn fast
                This is only my second tab, so don't give me cr*p if it's bad. I DON'T KNOW THE BRIDGE 
PLEASE DON'T COUNT IT AGAINST ME IN YOUR RATING!!!!!!


Intro Both Guitars (Clean)
   E               Am                B
e|-----------------00000000000000000----------------------|
B|-000000000000000-11111111111111111----------------------|
G|-111111111111111-22222222222222222-44444444444444444444-|
D|-222222222222222-22222222222222222-44444444444444444444-|
A|-222222222222222-00000000000000000-22222222222222222222-|
E|-000000000000000----------------------------------------|

Verse Both Guitars (Clean)
   E               Am       B          E                B
e|-----------------00000000----------------------------------------------|
B|-000000000000000-11111111------------0000000000000000------------------|
G|-111111111111111-22222222-4444444444-1111111111111111-4444444444444444-|x2
D|-222222222222222-22222222-4444444444-2222222222222222-4444444444444444-|
A|-222222222222222-00000000-2222222222-2222222222222222-2222222222222222-|
E|-000000000000000---------------------0000000000000000------------------|

Chorus Both Guitars (Distorted)
e|-------------------------------------|
B|-------------------------------------|
G|----------44444444----------44444444-|x2
D|-77777777-44444444-77777777-44444444-|
A|-77777777-22222222-77777777-22222222-|
E|-55555555----------55555555----------|

Solo Guitar 2 (Distorted)
e|------------------------------------------------------|
B|------------------------------------------------------|
G|-5-4-2-4~~~~4h5p4-2-4-2-0---------------5-4-2-0~~~~~~-|
D|--------------------------------5-4-5-2---------------|
A|--------------------------3~~~~-----------------------|
E|------------------------------------------------------|

Backing Guitar (Clean)
   E               Am       B          E                B
e|-----------------00000000----------------------------------------------|
B|-000000000000000-11111111------------0000000000000000------------------|
G|-111111111111111-22222222-4444444444-1111111111111111-4444444444444444-|
D|-222222222222222-22222222-4444444444-2222222222222222-4444444444444444-|
A|-222222222222222-00000000-2222222222-2222222222222222-2222222222222222-|
E|-000000000000000---------------------0000000000000000------------------|

Verse Guitar 1 (Clean Electric)
   E               Am       B          E                B
e|-----------------00000000----------------------------------------------|
B|-000000000000000-11111111------------0000000000000000------------------|
G|-111111111111111-22222222-4444444444-1111111111111111-4444444444444444-|x2
D|-222222222222222-22222222-4444444444-2222222222222222-4444444444444444-|
A|-222222222222222-00000000-2222222222-2222222222222222-2222222222222222-|
E|-000000000000000---------------------0000000000000000------------------|

Guitar 2 (Distorted)
e|-----------------------------------------------------------------------|
B|-----------------------------------------------------------------------|
G|--------------------------4~~~~~~~~~-------------------4~~~~~~~~~~~~~~-|x2
D|-----------------7~~~~~~~-4~~~~~~~~~-------------------4~~~~~~~~~~~~~~-|
A|-----------------7~~~~~~~-2~~~~~~~~~-------------------2~~~~~~~~~~~~~~-|
E|-----------------5~~~~~~~----------------------------------------------|

Chorus Both Guitars (Distorted)
e|-------------------------------------|
B|-------------------------------------|
G|----------44444444----------44444444-|x2
D|-77777777-44444444-77777777-44444444-|
A|-77777777-22222222-77777777-22222222-|
E|-55555555----------55555555----------|

Bridge (I DON'T KNOW)

Chorus Both Guitars (Distorted)
e|-------------------------------------|
B|-------------------------------------|
G|----------44444444----------44444444-|x2
D|-77777777-44444444-77777777-44444444-|
A|-77777777-22222222-77777777-22222222-|
E|-55555555----------55555555----------|

Third and Fourth Times
e|-------------------------------------|
B|-------------------------------------|
G|----------4~~~~~~~----------4~~~~~~~-|
D|-7~~~~~~~-4~~~~~~~-7~~~~~~~-4~~~~~~~-|
A|-7~~~~~~~-2~~~~~~~-7~~~~~~~-2~~~~~~~-|
E|-5~~~~~~~----------5~~~~~~~----------|

THE
  N
  D
            
Submit corrections

comments powered by Disqus
↑ Back to top | Kutless Tabs for Better Is One Day. Lyrics for acoustic guitar and electric guitar. Tablatures and chords are parodies/interpretations of the original songs. You may use it for private study, scholarship, research or language learning purposes only