» » »

Better Is One Day Bass tabs (ver.1)

Artists:  A B C D E F G H I J K L M N O P Q R S T U V W X Y Z # 

Better Is One Day Bass tabs (ver.1)

Kutless
Rating:
5/5 (2 votes)

Hard to play? Try these video lessons and learn fast.
                Intro


G(----------------------------------------------)
D(--------11---9--8--6h8---------6h8-----11-----)
A(--------------------------2~------------------)
E(--2~------------------------------------------)


verse


G(--------------------------------------------------)
D(--------------------------------------------------)
A(-----------------2~-----4~-------------------4~---)
E(---2~-----2~-------------------2~-----2~----------)

G(---------------------------------------------------------------)
D(--11--11--9--8-------------------------------------------------)
A(-------------------------------2~-----4~-------------------4~--)
E(-----------------2~-----2~-------------------2~-----2~---------)

G(---------------------)
D(--11--11--9--8--6h8--)
A(---------------------)
E(---------------------)

chorus

G(----------------------------------------)  
D(-----------4-4--3-3-----------3-3-------)
A(--2-2-2-2------------4-4-4-4-------1-1--)
E(----------------------------------------)
                                               x2
G(----------------------------------------)
D(-----------4-4--3-3---------------------)
A(--2-2-2-2------------4-4-4-4--4-4-4-4---)
E(----------------------------------------)
            
Hard to play? Try these video lessons and learn fast. | Correct




comments powered by Disqus
↑ Back to top | Tablatures and chords are parodies/interpretations of the original songs. You may use it for private study, scholarship, research or language learning purposes only