» » »

Stayed Awake All Night Tabs (ver.2)

Artists:  A B C D E F G H I J K L M N O P Q R S T U V W X Y Z # 

Stayed Awake All Night Tabs (ver.2)

Krokus
Rating:
5/5 (1 vote)

Hard to play? Try these video lessons and learn fast.
                (Intro)
Intro
---------------------------|
---------------------3-3---|
-----------------2---2-2---|x4
-----------------2---0-0---|
-----------------0-x-------|
-0-0-0-0-0-0-0-0---x-------|

Riff
-----------------------------------------------------------------------|
-----------------------------------------------------------------------|
-------7---7-9-9-9-9-7-------------------------------------------------|
---7h9---9-------------9-7-5---5-7-5-----------------------------------|
-----------------------------7-------7-5---5-7-7-7-7-5-----------------|
-----------------------------------------7-------------7-5-3-0-3-5-3---|

             ~~~~                                      ~~~~~~~~
-----------------------------------------------------------------------|
-------------------------------------------------------9---9-----------|
-------7---7h9---9-7---------------------------7-7----(9)-(9)----------|
---7h9---9-------------9-7-5---5-7-5---5-7-7/9-----9--(7)-(7)----------|
-----------------------------7-------7---------------------------------|
-----------------------------------------------------------------------|

Chorus

---------------------------|
---------------------3-3---|
-----------------2---2-2---|x3
-----------------2---0-0---|
-----------------0-x-------|
-0-0-0-0-0-0-0-0---x-------|


(play this one after that last part is played 3 times.. then just keep playing it)
---------------------------|
-----------------3---------|
-----------------2--2------|
-----------------0--2------|
--------------------0------|
-0-0-0-0-0-0-0-0-----------|


Hey this is my first tab. and i chose this one because i couldnt find the tab myself. i 
have the solo down but am too lazy to put it here. and its late so hope this is tasty. 
really.. the rest isnt that hard to figure out any way.
            
Hard to play? Try these video lessons and learn fast. | Correct




comments powered by Disqus
↑ Back to top | Tablatures and chords are parodies/interpretations of the original songs. You may use it for private study, scholarship, research or language learning purposes only