» » »

Our Love Tabs (ver.1)

Artists:  A B C D E F G H I J K L M N O P Q R S T U V W X Y Z # 

Our Love Tabs (ver.1)

Krokus
Rating:
5/5 (1 vote)

Hard to play? Try these video lessons and learn fast.
                
Standard Tuning
A great song by Krokus. Tabbed for one guitar.  This song has lots of PM that I don't 
to fill in  Should sound pretty close to the ablum other than the missing 2nd guitar. The
solo is coming but will take some time.
Comments or corrections?


E||------------------|------------------|-----------------|------------------|
B||---------------1--|---------------1--|-----------------|--------------1---|
G||-----------5---2--|-----------5---2--|-----------5--7--|-----------5--2---|
D||--3--3--3--5---2--|--3--3--3--5---2--|--3--3--3--5--5--|--3--3--3--5--2---|X3
A||--3--3--3--3---0--|--3--3--3--3---0--|--3--3--3--3--5--|--3--3--3--3--0---|
E||--1--1--1---------|--1--1--1---------|--1--1--1-----3--|--1--1--1---------|
 | 0:53 |
E||---------------------------|
B||---------------------------|
G||---------------------------|
D||--7--7--7--7--7--7--7------|
A||--7--7--7--7--7--7--7------|
E||--5--5--5--5--5--5--5--4b--|
 | 0:55 |
E||---------------------|---------------------|---------------------------|
B||--1------------------|--1------------------|---------------------1-----|
G||--2---------------5--|--2---------------5--|--7---------------5--2-----|
D||--2-x8--3----3-3--5--|--2-x8--3----3-3--5--|--5-x8--3----3-3--5--2-x8--|
A||--0-----3----3-3--3--|--0-----3----3-3--3--|--5-----3----3-3--3--0-----|
E||--------1----1-1-----|--------1----1-1-----|--3-----1----1-1-----------|
 | 1:11 |
                                    1______  2______  3______  4__
E||--------5--------5--------5-----|--------|--------|--------|----|
B||--------6--------6--------6-----|--------|--------|--------|----|
G||--7--7--7--7--7--7--7--7--7-----|--3--5--|--5-----|--3--5--|----|
D||--7--7--7--7--7--7--7--7--7-----|--3--5--|--5--3--|--3--5--|----|  X4
A||--5--5--5--5--5--5--5--5--5-----|--1--3--|--3--3--|--1--3--|----|
E||--------------------------------|--------|-----1--|--------|----|
 | 1:25 |
E||-----------------------------|-----------------------------|-----------------------------|-------------------------------|
B||----------------1---1-1--1-1-|----------------1---1-1--1-1-|-----------------------------|----------------1---1-1--------|
G||-------------5--2---2-2--2-2-|-------------5--2---2-2--2-2-|-------------5---------------|-------------5--2---2-2--6-----|
D||-3--3--3--3--5--2---2-2--2-2-|-3--3--3--3--5--2---2-2--2-2-|-3--3--3--3--5--5---5-5--5-5-|-3--3--3--3--5--2---2-2--7-----|
A||-3--3--3--3--3--0---0-0--0-0-|-3--3--3--3--3--0---0-0--0-0-|-3--3--3--3--3--5---5-5--5-5-|-3--3--3--3--3--0---0-0--7-----|
E||-1--1--1--1------------------|-1--1--1--1------------------|-1--1--1--1-----3---3-3--3-3-|-1--1--1--1--------------5--4b-|
 | 1:42 |
E||---------------------|-----------------|------------------|
B||-1----------------1--|-----------------|--------------1---|
G||-2------------5---2--|-----------5--7--|-----------5--2---|
D||-2---3--3--3--5---2--|--3--3--3--5--5--|--3--3--3--5--2---|
A||-0---3--3--3--3---0--|--3--3--3--3--5--|--3--3--3--3--0---|
E||-----1--1--1---------|--1--1--1-----3--|--1--1--1---------|
 | 1:55 |
E||---------------------------|
B||---------------------------|
G||---------------------------|
D||--7--7--7--7--7--7--7------|
A||--7--7--7--7--7--7--7------|
E||--5--5--5--5--5--5--5--4b--|
 | 1:58 |
E||---------------------|---------------------|-------------------------|
B||--1------------------|--1------------------|---------------------1---|
G||--2---------------5--|--2---------------5--|--7---------------5--2---|
D||--2-x8--3----3-3--5--|--2-x8--3----3-3--5--|--5-x8--3----3-3--5--2---|
A||--0-----3----3-3--3--|--0-----3----3-3--3--|--5-----3----3-3--3--0---|
E||--------1----1-1-----|--------1----1-1-----|--3-----1----1-1---------|
 | 2:13 |
                                    1______  2______  3______  4__
E||--------5--------5--------5-----|--------|--------|--------|----|
B||--------6--------6--------6-----|--------|--------|--------|----|
G||--7--7--7--7--7--7--7--7--7-----|--3--5--|--5-----|--3--5--|----|
D||--7--7--7--7--7--7--7--7--7-----|--3--5--|--5--3--|--3--5--|----|  X4
A||--5--5--5--5--5--5--5--5--5-----|--1--3--|--3--3--|--1--3--|----|
E||--------------------------------|--------|-----1--|--------|----|
 | 2:28 |
E||-----------------------------|-----------------------------|-----------------------------|----------------------------|
B||----------------1---1-1--1-1-|----------------1---1-1--1-1-|-----------------------------|----------------1--1-1--1-1-|
G||-------------5--2---2-2--2-2-|-------------5--2---2-2--2-2-|-------------5--7---7-7--7-7-|-------------5--2--2-2--2-2-|
D||-3--3--3--3--5--2---2-2--2-2-|-3--3--3--3--5--2---2-2--2-2-|-3--3--3--3--5--5---5-5--5-5-|-3--3--3--3--5--2--2-2--2-2-|
A||-3--3--3--3--3--0---0-0--0-0-|-3--3--3--3--3--0---0-0--0-0-|-3--3--3--3--3--5---5-5--5-5-|-3--3--3--3--3--0--0-0--0-0-|
E||-1--1--1--1------------------|-1--1--1--1------------------|-1--1--1--1-----3---3-3--3-3-|-1--1--1--1-----------------|
 | 2:43 |
E||---------------------|---------------------|---------------------|---------------------|
B||----------------1----|----------------1----|---------------------|----------------1----|
G||-------------5--2----|-------------5--2----|-------------5--7----|-------------5--2----|
D||-3--3--3--3--5--2-x8-|-3--3--3--3--5--2-x8-|-3--3--3--3--5--5-x8-|-3--3--3--3--5--2-x8-|
A||-3--3--3--3--3--0----|-3--3--3--3--3--0----|-3--3--3--3--3--5----|-3--3--3--3--3--0----|
E||-1--1--1--1----------|-1--1--1--1----------|-1--1--1--1-----3----|-1--1--1--1----------|
 | 3:00 |
E||------------------------------|-------------------------------------|------------------------------|
B||------------------------------|-------------------------------------|-------------6----------------|
G||------------------7--6--4--9--|--9--9h11s13--13h14s16--16S14--14S16-|---5-7-7-5-7--7-5-------5-----|
D||------------------7--6--4--9--|-------------------------------------|------------------7-5-7--7----|
A||----7~\------7~\--5--4--2--7--|-------------------------------------|------------------------------|
E||--0-------0-------------------|-------------------------------------|------------------------------|

E||--------------------------|-------|--------------------------------------------------|-------|
B||--------------------------|-------|--------------------------------------------------|-------|
G||--------------------------|-------|--14----14--------13----12--12----12--------------|-------|
D||--------3--------------3--|-solo--|-----13----12--12----12-------11----10--10---10---|--3----|
A||--5-3-5---5-3-------------|-------|-------------------------------------------9----8-|--3-x8-|
E||---------------5-3-5------|-------|--------------------------------------------------|--1----|
 | 3:42 |
 | With Chorus                                                   | Chorus Off
E||-----------------------------|-----------------------------|-----------------------------|----------------------------|
B||----------------1---1-1--1-1-|----------------1---1-1--1-1-|-----------------------------|----------------1---1-1--1-1|
G||-------------5--2---2-2--2-2-|-------------5--2---2-2--2-2-|-------------5--7---7-7--7-7-|-------------5--2---2-2--2-2|
D||-3--3--3--3--5--2---2-2--2-2-|-3--3--3--3--5--2---2-2--2-2-|-3--3--3--3--5--5---5-5--5-5-|-3--3--3--3--5--2---2-2--2-2|
A||-3--3--3--3--3--0---0-0--0-0-|-3--3--3--3--3--0---0-0--0-0-|-3--3--3--3--3--5---5-5--5-5-|-3--3--3--3--3--0---0-0--0-0|
E||-1--1--1--1------------------|-1--1--1--1------------------|-1--1--1--1-----3---3-3--3-3-|-1--1--1--1-----------------|
 | 3:57 |
E||---------------------|---------------------|---------------------|---------------------|
B||----------------1----|----------------1----|---------------------|----------------1----|
G||-------------5--2----|-------------5--2----|-------------5--7----|-------------5--2----|
D||-3--3--3--3--5--2-x8-|-3--3--3--3--5--2-x8-|-3--3--3--3--5--5-x8-|-3--3--3--3--5--2-x8-|
A||-3--3--3--3--3--0----|-3--3--3--3--3--0----|-3--3--3--3--3--5----|-3--3--3--3--3--0----|
E||-1--1--1--1----------|-1--1--1--1----------|-1--1--1--1-----3----|-1--1--1--1----------|
 | 4:12 |
E||---------------------|---------------------|---------------------|-----------------------|
B||----------------1----|----------------1----|---------------------|----------------1------|
G||-------------5--2----|-------------5--2----|-------------5--7----|-------------5--2----7-|
D||-3--3--3--3--5--2-x8-|-3--3--3--3--5--2-x8-|-3--3--3--3--5--5-x8-|-3--3--3--3--5--2-x6-7-|
A||-3--3--3--3--3--0----|-3--3--3--3--3--0----|-3--3--3--3--3--5----|-3--3--3--3--3--0----5-|
E||-1--1--1--1----------|-1--1--1--1----------|-1--1--1--1-----3----|-1--1--1--1------------|
 | 4:34 |
E||------------------|
B||----------------1-|
G||-------------5--2-|
D||-3--3--3--3--5--2-|
A||-3--3--3--3--3--0-|
E||-1--1--1--1-------|
            
Hard to play? Try these video lessons and learn fast. | Correct




comments powered by Disqus
↑ Back to top | Tablatures and chords are parodies/interpretations of the original songs. You may use it for private study, scholarship, research or language learning purposes only