» » »

Midnight Maniac Tabs (ver.1)

Artists:  A B C D E F G H I J K L M N O P Q R S T U V W X Y Z # 

Midnight Maniac Tabs (ver.1)

Krokus
Rating:
4/5 (6 votes)

Hard to play? Try these video lessons and learn fast.
                intro.
E|-----------------------------------------------|
B|-----------------------------------------------|
G|-----------------------------------------------|
D|-------------------------0-4-7-----------------|
A|-------------0-4-7-0-4-7-------0-4-7-----------|
E|-0-4-7-0-4-7-------------------------0-4-7-0===|
play four times

verse.
E|-----------------------------------------------------------|
B|-----------------------------------------------------------|
G|-----------------------------------------------------------|
D|---------------------------------------------------------7-|
A|-4h5-------------4h5-------------4h5-------4-------------9-|
E|-----0-0-0-0-0-0-----0-0-0-0-0-0-----0-0-0---0-0-0-7p4p0---|
play four times 

E|-----------------------------------------------------------|
B|-----------------------------------------------------------|
G|---------------------------------------------------------7-|
D|-4h5-------------4h5-------------4h5-------4-------------9-|
A|-----0-0-0-0-0-0-----0-0-0-0-0-0-----0-0-0---0-0-0-7p4p0---|
E|-----------------------------------------------------------|
play this once and then play the first part of the verse once more.

pre chorus.
E|-----------------------------------------------------------------|
B|-----------------------------------------------------------------|
G|-2-2-2-2-2-2-2-2-5-5-5-5-5-5-5-5-7-7-7-7-7-7-7-7-9-9-9-9-9-9-9-9-|
D|-2-2-2-2-2-2-2-2-5-5-5-5-5-5-5-5-7-7-7-7-7-7-7-7-9-9-9-9-9-9-9-9-|
A|-0-0-0-0-0-0-0-0-3-3-3-3-3-3-3-3-5-5-5-5-5-5-5-5-7-7-7-7-7-7-7-7-|
E|-----------------------------------------------------------------|

chorus.
E|-----------------------|
B|-----------------------|
G|-------------7-7-------|
D|-------------7-7---7-7-|
A|-------------5-5---7-7-|
E|-0---4-7-4-0-------5-5-|
play the chorus twice

then just play them all in standard order
            
Hard to play? Try these video lessons and learn fast. | Correct




comments powered by Disqus
↑ Back to top | Tablatures and chords are parodies/interpretations of the original songs. You may use it for private study, scholarship, research or language learning purposes only