» » »

Kittie, 11 - Paperdoll Tabs (ver.2)

Artists:  A B C D E F G H I J K L M N O P Q R S T U V W X Y Z # 

11 - Paperdoll Tabs (ver.2)

Kittie Tabs
Rating:
0/5 (0 votes)
11 - Paperdoll lessons Tabs too difficult? Try these video lessons and learn fast
                I think this song is realy ***in' cool. This song and the original paperdoll(Tanya version) r da same, but here is Morgan who is singin'. I luv kittie!

INTRO/Verse

D|--------------------------------------|
A|--------------------------------------|
F|--------------------------------------|
C|---2-2-2-2-222-/-3-3-3333-/-5-5-5-3---|
G|---2-2-2-2-222-/-3-3-3333-/-5-5-5-3---|
C|---2-2-2-2-222-/-3-3-3333-/-5-5-5-3---|

THEN
D|--------------------------------------------|
A|--------------------------------------------|
F|--------------------------------------------|
C|---2-XXXX-2-XXXX-2-XX-3-XXXX-3-XX-5-5-3-2---|
G|---2-XXXX-2-XXXX-2-XX-3-XXXX-3-XX-5-5-3-2---|
C|---2-XXXX-2-XXXX-2-XX-3-XXXX-3-XX-5-5-3-2---|

CHORUS
		   x2
D|-------------------|---------|
A|-------------------|---------|
F|-------------------|---------|	Repeat this part 4 times
C|---0-/-6--6-6--0---|---7-7---|
G|---0-/-6--6-6--0---|---7-7---|
C|---0-/-6--6-6--0---|---7-7---|

BRIDGE
			    x2				x11
D|----------------------------|----------------------------|
A|----------------------------|----------------------------|
F|----------------------------|----------------------------|
C|----------------------------|---4-3-3--3-4-3--3-3-4444---|
G|----------------------------|---4-3-3--3-4-3--3-3-4444---|
C|---4-3-3--3-4-3--3-3-4444---|---4-3-3--3-4-3--3-3-4444---|

THEN

D|--------------------|
A|--------------------|
F|--------------------|
C|---4-3-3--3-4-3-3---|
G|---4-3-3--3-4-3-3---|
C|---4-3-3--3-4-3-3---|

OUTRO
		   x2
D|-------------------|---------|
A|-------------------|---------|
F|-------------------|---------|
C|---0-/-6--6-6--0---|---7-7---|	Repeat this part 4 times
G|---0-/-6--6-6--0---|---7-7---|
C|---0-/-6--6-6--0---|---7-7---|

that's all kittie fans.
            

comments powered by Disqus
↑ Back to top | Kittie Tabs for 11 - Paperdoll. Lyrics for acoustic guitar and electric guitar. Tablatures and chords are parodies/interpretations of the original songs. You may use it for private study, scholarship, research or language learning purposes only