» » »

Kittie, 11 - Paperdoll Tabs (ver.1)

Artists:  A B C D E F G H I J K L M N O P Q R S T U V W X Y Z # 

11 - Paperdoll Tabs (ver.1)

Kittie Tabs
 Rating:
4/5 (4 votes)
11 - Paperdoll lessons Tabs too difficult? Try these video lessons and learn fast
                Tuning: Dropped-D

Key: / = Slide
     x = Mute/Rake
     h = hammer on
     p = pull off
_____________________________________________________________________________

INTRO/VERSE:(clean)
[0:05]
e----------------------------------------------|
B----------------------------------------------|
G----------------------------------------------|
D-12--x-x-x-12-x-x-x-12-x-x-13-x-x-x-13-x-15-13|
A-12--x-x-x-12-x-x-x-12-x-x-13-x-x-x-13-x-15-13|
D-12--x-x-x-12-x-x-x-12-x-x-13-x-x-x-13-x-15-13|
                                                                              

VERSE PART 2:
[0:40]
e---------------------------------------|
B---------------------------------------|
G---------------------------------------|
D-0--x-x-x-0-x-x-x-0-x-x-1-x-x-x-1-x-3-1|
A-0--x-x-x-0-x-x-x-0-x-x-1-x-x-x-1-x-3-1|
D-0--x-x-x-0-x-x-x-0-x-x-1-x-x-x-1-x-3-1|
                                                                              

Part 3:(slight distortion)
[1:16]
e---------------------------|
B---------------------------|
G---------------------------|
D-2/4-4-4-0--2/4-4-4-0--5-5-|
A-2/4-4-4-0--2/4-4-4-0--5-5-|
D-2/4-4-4-0--2/4-4-4-0--5-5-|
                                                                              

Part 4/Outro:(full distortion)
[2:24]
e----------------------------|
B----------------------------|
G----------------------------|
D-10-10-10-11p10-6-6/8-8-8-8-|
A-10-10-10-11p10-6-6/8-8-8-8-|
D-10-10-10-11p10-6-6/8-8-8-8-|



[0:05]INTRO/VERSE: x8
[0:40]VERSE PART 2: x8
[1:16]PART 3: x4
[1:35]INTRO/VERSE: x4
[1:53]VERSE PART 2: x4
[2:10]PART 3: x5
[2:24]PART 4/OUTRO: repeat to end
            
Submit corrections

comments powered by Disqus
↑ Back to top | Kittie Tabs for 11 - Paperdoll. Lyrics for acoustic guitar and electric guitar. Tablatures and chords are parodies/interpretations of the original songs. You may use it for private study, scholarship, research or language learning purposes only