» » »

Kittie, 11 - Paperdoll Tabs (ver.3)

Artists:  A B C D E F G H I J K L M N O P Q R S T U V W X Y Z # 

11 - Paperdoll Tabs (ver.3)

Kittie Tabs
 Rating:
4/5 (4 votes)
11 - Paperdoll lessons Tabs too difficult? Try these video lessons and learn fast
                Hey, waht's up, I think that, this tab is 100% correct, so i wish ya enjoy it. 

Tuning C (C,G,C,F,A,D)

INTRO

D|---------------------|
A|---(5)---------(6)---|
F|---(4)---------(5)---|	1 guitar
C|---------------------|
G|---------------------|
C|---------------------|

D|----------------------------------------|
A|---5-xxxx-5-xxxx-5-xx-6-xxxx-6-x-8--6---|
F|---4-xxxx-4-xxxx-4-xx-5-xxxx-5-x-7--5---|	2 guitar
C|----------------------------------------|
G|----------------------------------------|
C|----------------------------------------|

VERSE

D|------------------------------------------|
A|---5------5------5----6------6----8-8-6---|
F|---4------4------4----5------5----7-7-5---|
C|---2-xxxx-2-xxxx-2-xx-3-xxxx-3-xx-5-5-3---|
G|---2-xxxx-2-xxxx-2-xx-3-xxxx-3-xx-5-5-3---|
C|---2-xxxx-2-xxxx-2-xx-3-xxxx-3-xx-5-5-3---|

THEN

D|---------------------------|
A|---------------------------|
F|---------------------------|		1 guitar
C|---2--2---2-3--3---5-5-3---|
G|---2--2---2-3--3---5-5-3---|
C|---2--2---2-3--3---5-5-3---|

D|-------------------------------------|
A|---5-55555-55555-55-666666-66-88-6---|
F|---4-44444-44444-44-555555-55-77-5---|	2 guitar
C|-------------------------------------|
G|-------------------------------------|
C|-------------------------------------|

CHORUS
		    x2
D|--------------------|---------|
A|--------------------|---------|
F|--------------------|---------|
C|---0-/-6---6-6--0---|---7-7---|
G|---0-/-6---6-6--0---|---7-7---|
C|---0-/-6---6-6--0---|---7-7---|

BRIDGE

D|----------------------------------------------------------------------|
A|----------------------------------------------------------------------|
F|----------------------------------------------------------------------|
C|----------------------------------------------------------------------|
G|----------------------------------------------------------------------|
C|---12---12-12---12-12--13-\-12--12-12--12-12--8--8-8--10--10-10--10---|

THEN

D|----------------|
A|----------------|
F|----------------|	2 guitar
C|---12-12-(12)---|
G|---12-12-(12)---|
C|---12-12-(12)---|

D|----------------------------------------------------------------------|
A|----------------------------------------------------------------------|
F|----------------------------------------------------------------------|
C|---12---12-12---12-12--13-\-12--12-12--12-12--8--8-8--10--10-10--10---|
G|---12---12-12---12-12--13-\-12--12-12--12-12--8--8-8--10--10-10--10---|
C|---12---12-12---12-12--13-\-12--12-12--12-12--8--8-8--10--10-10--10---|

D|------------------------|
A|------------------------|
F|------------------------|
C|---(12)----8---10--12---|
G|---(12)----8---10--12---|
C|---(12)----8---10--12---|

That's all folks
            
Submit corrections

comments powered by Disqus
↑ Back to top | Kittie Tabs for 11 - Paperdoll. Lyrics for acoustic guitar and electric guitar. Tablatures and chords are parodies/interpretations of the original songs. You may use it for private study, scholarship, research or language learning purposes only