» » »

Kittie, Jonny Tabs (ver.1)

Artists:  A B C D E F G H I J K L M N O P Q R S T U V W X Y Z # 

Jonny Tabs (ver.1)

Kittie Tabs
Rating:
0/5 (0 votes)
Jonny lessons Tabs too difficult? Try these video lessons and learn fast
                Guitarists:Fallon Bowman/Morgan Lander
tuning:C G C F A D   H=HAMMER

C|-1-0-0-1-0-0-1-0|
G|-1-0-0-1-0-0-1-0|
C|-1-0-0-1-0-0-1-0|
PM................

C|-1-0-0-1-0-0-1-0-1-0-0-1-0-0-4|
G|-1-0-0-1-0-0-1-0-1-0-0-1-0-0-4|
C|-1-0-0-1-0-0-1-0-1-0-0-1-0-0-4|

F|-----------------11-11-11-11-11|
C|-5-4-0-6-4-7-5-4-XXXXXXXXXXXXXX|
G|-5-4-0-6-4-7-5-4-9--9--9--9--9-|
C|-5-4-0-6-4-7-5-4---------------|

C|-0-0-0-0-0-0-0-0-7-0-0-7-0-0-7H8|
G|-0-0-0-0-0-0-0-0-7-0-0-7-0-0-7H8|
C|-0-0-0-0-0-0-0-0-7-0-0-7-0-0-7H8|
PM................. ..... .....

C|----------------|-4-3-0-5-4-0-4-0|
G|----------------|-4-3-0-5-4-0-4-0|
C|-4-3-0-5-4-0-4-0|-4-3-0-5-4-0-4-0|
PM................
            

comments powered by Disqus
↑ Back to top | Kittie Tabs for Jonny. Lyrics for acoustic guitar and electric guitar. Tablatures and chords are parodies/interpretations of the original songs. You may use it for private study, scholarship, research or language learning purposes only