» » »

Jonny Bass tabs (ver.1)

Artists:  A B C D E F G H I J K L M N O P Q R S T U V W X Y Z # 

Jonny Bass tabs (ver.1)

Kittie
Rating:
0/5 (0 votes)

Hard to play? Try these video lessons and learn fast.
                (2)
BY NirVanaSystem

Intro:
------------------------------
------------------------------
------------------------------
-1-00-1-00-1-0-1-00-1-00-1----

Verse:
------------------------------
------------------------------
------------------------------
-1-00-1-00-1-0-1-00-1-00-4----

Chorus:
------------------------------
------------------------------
------------------------------
-6-5-0-6-5-0-6-5-9-9-9-9------

" Jonny's been a very bad boy...."

-----------------------------------
-----------------------------------
-----------------------------------
-0-0-0-0-0-0-0-0-7-0-0-7-0-0-7-8---
Thats it, you can figure the counts....enjoy
            
Hard to play? Try these video lessons and learn fast. | Correct




comments powered by Disqus
↑ Back to top | Tablatures and chords are parodies/interpretations of the original songs. You may use it for private study, scholarship, research or language learning purposes only