» » »

Kittie, Jonny Tabs (ver.2)

Artists:  A B C D E F G H I J K L M N O P Q R S T U V W X Y Z # 

Jonny Tabs (ver.2)

Kittie Tabs
 Rating:
4/5 (4 votes)
Jonny lessons Tabs too difficult? Try these video lessons and learn fast
1
                TUNING: C, G, C, F, A, D

Intro/Pre-Chorus:
D-------------------------------
A-------------------------------
F-------------------------------
C-1-0-0-1-0-0-1-0-1-0-0-1-0-0-4-
G-1-0-0-1-0-0-1-0-1-0-0-1-0-0-4-
C-1-0-0-1-0-0-1-0-1-0-0-1-0-0-4-

Verse:
D---------------------
A---------------------
F---------------------
C-5-4-3-0-5-4-3-0-<4>-
G-5-4-3-0-5-4-3-0-<4>-
C-5-4-3-0-5-4-3-0-<4>-

Chorus:
D---------------------------------
A---------------------------------
F---------------------------------
C-X-X-X-X-X-X-X-X-7-X-X-7-X-X-7-8-
G-X-X-X-X-X-X-X-X-7-X-X-7-X-X-7-8-
C-X-X-X-X-X-X-X-X-7-X-X-7-X-X-7-8-

Bridge:
D-----------------
A-----------------
F-----------------
C-5-4-3-0-3-0-3-0-
G-5-4-3-0-3-0-3-0-
C-5-4-3-0-3-0-3-0-
            
Submit corrections

comments powered by Disqus
↑ Back to top | Kittie Tabs for Jonny. Lyrics for acoustic guitar and electric guitar. 1 Tablatures and chords are parodies/interpretations of the original songs. You may use it for private study, scholarship, research or language learning purposes only