» » »

Funeral For Yesterday Bass tabs (ver.1)

Artists:  A B C D E F G H I J K L M N O P Q R S T U V W X Y Z # 

Funeral For Yesterday Bass tabs (ver.1)

Kittie
Rating:
5/5 (1 vote)

Hard to play? Try these video lessons and learn fast.
                We converted the song to E instead of C to make it easier.

Intro

E ---4----------------------------|
A -3------------------------------|
G --------------------------------|
D --------------------------------|

Chorus

E -------------4------------------|
A -3-5-6-8-6-5---6-5-1-3----------|
G---------------------------------|
D---------------------------------|

Verse

E---------4-----------------------|
A-3-6-5-1-------------------------|
G---------------------------------|
D---------------------------------|

Break

E---4-----------------------------|
A-3-------------------------------|
G---------------------------------|
D---------------------------------|

Modulated Chorus

E--------------6------------------|
A-5-7-8-10-8-7---8-7-3-5----------|
G---------------------------------|
D---------------------------------|


We'll add the quantity of the notes later but you can also listen to the song to hear 

thanx

Merel & Neel
            
Hard to play? Try these video lessons and learn fast. | Correct




comments powered by Disqus
↑ Back to top | Tablatures and chords are parodies/interpretations of the original songs. You may use it for private study, scholarship, research or language learning purposes only